  0
SECTION
  2
HEADER
  9
$ACADVER
  1
AC1018
  9
$ACADMAINTVER
 70
     0
  9
$DWGCODEPAGE
  3
ANSI_1252
  9
$INSBASE
 10
0.0
 20
0.0
 30
0.0
  9
$EXTMIN
 10
323260.544115251
 20
5675306.01787308
 30
0.0
  9
$EXTMAX
 10
323503.417213146
 20
5675487.25098361
 30
0.0
  9
$LIMMIN
 10
0.0
 20
0.0
  9
$LIMMAX
 10
12.0
 20
9.0
  9
$ORTHOMODE
 70
     0
  9
$REGENMODE
 70
     1
  9
$FILLMODE
 70
     1
  9
$QTEXTMODE
 70
     0
  9
$MIRRTEXT
 70
     1
  9
$LTSCALE
 40
1.0
  9
$ATTMODE
 70
     1
  9
$TEXTSIZE
 40
0.2
  9
$TRACEWID
 40
0.05
  9
$TEXTSTYLE
  7
Standard
  9
$CLAYER
  8
0
  9
$CELTYPE
  6
ByLayer
  9
$CECOLOR
 62
   256
  9
$CELTSCALE
 40
1.0
  9
$DISPSILH
 70
     0
  9
$DIMSCALE
 40
1.0
  9
$DIMASZ
 40
0.18
  9
$DIMEXO
 40
0.0625
  9
$DIMDLI
 40
0.38
  9
$DIMRND
 40
0.0
  9
$DIMDLE
 40
0.0
  9
$DIMEXE
 40
0.18
  9
$DIMTP
 40
0.0
  9
$DIMTM
 40
0.0
  9
$DIMTXT
 40
0.18
  9
$DIMCEN
 40
0.09
  9
$DIMTSZ
 40
0.0
  9
$DIMTOL
 70
     0
  9
$DIMLIM
 70
     0
  9
$DIMTIH
 70
     1
  9
$DIMTOH
 70
     1
  9
$DIMSE1
 70
     0
  9
$DIMSE2
 70
     0
  9
$DIMTAD
 70
     0
  9
$DIMZIN
 70
     0
  9
$DIMBLK
  1

  9
$DIMASO
 70
     1
  9
$DIMSHO
 70
     1
  9
$DIMPOST
  1

  9
$DIMAPOST
  1

  9
$DIMALT
 70
     0
  9
$DIMALTD
 70
     2
  9
$DIMALTF
 40
25.4
  9
$DIMLFAC
 40
1.0
  9
$DIMTOFL
 70
     0
  9
$DIMTVP
 40
0.0
  9
$DIMTIX
 70
     0
  9
$DIMSOXD
 70
     0
  9
$DIMSAH
 70
     0
  9
$DIMBLK1
  1

  9
$DIMBLK2
  1

  9
$DIMSTYLE
  2
Standard
  9
$DIMCLRD
 70
     0
  9
$DIMCLRE
 70
     0
  9
$DIMCLRT
 70
     0
  9
$DIMTFAC
 40
1.0
  9
$DIMGAP
 40
0.09
  9
$DIMJUST
 70
     0
  9
$DIMSD1
 70
     0
  9
$DIMSD2
 70
     0
  9
$DIMTOLJ
 70
     1
  9
$DIMTZIN
 70
     0
  9
$DIMALTZ
 70
     0
  9
$DIMALTTZ
 70
     0
  9
$DIMUPT
 70
     0
  9
$DIMDEC
 70
     4
  9
$DIMTDEC
 70
     4
  9
$DIMALTU
 70
     2
  9
$DIMALTTD
 70
     2
  9
$DIMTXSTY
  7
Standard
  9
$DIMAUNIT
 70
     0
  9
$DIMADEC
 70
     0
  9
$DIMALTRND
 40
0.0
  9
$DIMAZIN
 70
     0
  9
$DIMDSEP
 70
    46
  9
$DIMATFIT
 70
     3
  9
$DIMFRAC
 70
     0
  9
$DIMLDRBLK
  1

  9
$DIMLUNIT
 70
     2
  9
$DIMLWD
 70
    -2
  9
$DIMLWE
 70
    -2
  9
$DIMTMOVE
 70
     0
  9
$LUNITS
 70
     2
  9
$LUPREC
 70
     4
  9
$SKETCHINC
 40
0.1
  9
$FILLETRAD
 40
0.5
  9
$AUNITS
 70
     0
  9
$AUPREC
 70
     0
  9
$MENU
  1
.
  9
$ELEVATION
 40
0.0
  9
$PELEVATION
 40
0.0
  9
$THICKNESS
 40
0.0
  9
$LIMCHECK
 70
     0
  9
$CHAMFERA
 40
0.5
  9
$CHAMFERB
 40
0.5
  9
$CHAMFERC
 40
1.0
  9
$CHAMFERD
 40
0.0
  9
$SKPOLY
 70
     0
  9
$TDCREATE
 40
2455343.56230316
  9
$TDUCREATE
 40
2455343.728969826
  9
$TDUPDATE
 40
2455343.562303171
  9
$TDUUPDATE
 40
2455343.728969838
  9
$TDINDWG
 40
0.0000000116
  9
$TDUSRTIMER
 40
0.0000000116
  9
$USRTIMER
 70
     1
  9
$ANGBASE
 50
0.0
  9
$ANGDIR
 70
     0
  9
$PDMODE
 70
     0
  9
$PDSIZE
 40
0.0
  9
$PLINEWID
 40
0.0
  9
$SPLFRAME
 70
     0
  9
$SPLINETYPE
 70
     6
  9
$SPLINESEGS
 70
     8
  9
$HANDSEED
  5
000201D0
  9
$SURFTAB1
 70
     6
  9
$SURFTAB2
 70
     6
  9
$SURFTYPE
 70
     6
  9
$SURFU
 70
     6
  9
$SURFV
 70
     6
  9
$UCSBASE
  2

  9
$UCSNAME
  2

  9
$UCSORG
 10
0.0
 20
0.0
 30
0.0
  9
$UCSXDIR
 10
1.0
 20
0.0
 30
0.0
  9
$UCSYDIR
 10
0.0
 20
1.0
 30
0.0
  9
$UCSORTHOREF
  2

  9
$UCSORTHOVIEW
 70
     0
  9
$UCSORGTOP
 10
0.0
 20
0.0
 30
0.0
  9
$UCSORGBOTTOM
 10
0.0
 20
0.0
 30
0.0
  9
$UCSORGLEFT
 10
0.0
 20
0.0
 30
0.0
  9
$UCSORGRIGHT
 10
0.0
 20
0.0
 30
0.0
  9
$UCSORGFRONT
 10
0.0
 20
0.0
 30
0.0
  9
$UCSORGBACK
 10
0.0
 20
0.0
 30
0.0
  9
$PUCSBASE
  2

  9
$PUCSNAME
  2

  9
$PUCSORG
 10
0.0
 20
0.0
 30
0.0
  9
$PUCSXDIR
 10
1.0
 20
0.0
 30
0.0
  9
$PUCSYDIR
 10
0.0
 20
1.0
 30
0.0
  9
$PUCSORTHOREF
  2

  9
$PUCSORTHOVIEW
 70
     0
  9
$PUCSORGTOP
 10
0.0
 20
0.0
 30
0.0
  9
$PUCSORGBOTTOM
 10
0.0
 20
0.0
 30
0.0
  9
$PUCSORGLEFT
 10
0.0
 20
0.0
 30
0.0
  9
$PUCSORGRIGHT
 10
0.0
 20
0.0
 30
0.0
  9
$PUCSORGFRONT
 10
0.0
 20
0.0
 30
0.0
  9
$PUCSORGBACK
 10
0.0
 20
0.0
 30
0.0
  9
$USERI1
 70
     0
  9
$USERI2
 70
     0
  9
$USERI3
 70
     0
  9
$USERI4
 70
     0
  9
$USERI5
 70
     0
  9
$USERR1
 40
0.0
  9
$USERR2
 40
0.0
  9
$USERR3
 40
0.0
  9
$USERR4
 40
0.0
  9
$USERR5
 40
0.0
  9
$WORLDVIEW
 70
     1
  9
$SHADEDGE
 70
     3
  9
$SHADEDIF
 70
    70
  9
$TILEMODE
 70
     1
  9
$MAXACTVP
 70
    64
  9
$PINSBASE
 10
0.0
 20
0.0
 30
0.0
  9
$PLIMCHECK
 70
     0
  9
$PEXTMIN
 10
1.000000000000000E+20
 20
1.000000000000000E+20
 30
1.000000000000000E+20
  9
$PEXTMAX
 10
-1.000000000000000E+20
 20
-1.000000000000000E+20
 30
-1.000000000000000E+20
  9
$PLIMMIN
 10
0.0
 20
0.0
  9
$PLIMMAX
 10
12.0
 20
9.0
  9
$UNITMODE
 70
     0
  9
$VISRETAIN
 70
     1
  9
$PLINEGEN
 70
     0
  9
$PSLTSCALE
 70
     1
  9
$TREEDEPTH
 70
  3020
  9
$CMLSTYLE
  2
Standard
  9
$CMLJUST
 70
     0
  9
$CMLSCALE
 40
1.0
  9
$PROXYGRAPHICS
 70
     1
  9
$MEASUREMENT
 70
     0
  9
$CELWEIGHT
370
    -1
  9
$ENDCAPS
280
     0
  9
$JOINSTYLE
280
     0
  9
$LWDISPLAY
290
     0
  9
$INSUNITS
 70
     1
  9
$HYPERLINKBASE
  1

  9
$STYLESHEET
  1

  9
$XEDIT
290
     1
  9
$CEPSNTYPE
380
     0
  9
$PSTYLEMODE
290
     1
  9
$FINGERPRINTGUID
  2
{E7F7769E-AACA-40AB-9EF3-61BBAFBCBA26}
  9
$VERSIONGUID
  2
{FAEB1C32-E019-11D5-929B-00C0DF256EC4}
  9
$EXTNAMES
290
     1
  9
$PSVPSCALE
 40
0.0
  9
$OLESTARTUP
290
     0
  9
$SORTENTS
280
   127
  9
$INDEXCTL
280
     0
  9
$HIDETEXT
280
     1
  9
$XCLIPFRAME
290
     0
  9
$HALOGAP
280
     0
  9
$OBSCOLOR
 70
   257
  9
$OBSLTYPE
280
     0
  9
$INTERSECTIONDISPLAY
280
     0
  9
$INTERSECTIONCOLOR
 70
   257
  9
$DIMASSOC
280
     2
  9
$PROJECTNAME
  1

  0
ENDSEC
  0
SECTION
  2
CLASSES
  0
CLASS
  1
ACDBDICTIONARYWDFLT
  2
AcDbDictionaryWithDefault
  3
ObjectDBX Classes
 90
        0
 91
        4
280
     0
281
     0
  0
CLASS
  1
VISUALSTYLE
  2
AcDbVisualStyle
  3
ObjectDBX Classes
 90
     4095
 91
        4
280
     0
281
     0
  0
ENDSEC
  0
SECTION
  2
TABLES
  0
TABLE
  2
VPORT
  5
8
330
0
100
AcDbSymbolTable
 70
     1
  0
VPORT
  5
29
330
8
100
AcDbSymbolTableRecord
100
AcDbViewportTableRecord
  2
*Active
 70
     0
 10
0.0
 20
0.0
 11
1.0
 21
1.0
 12
80.25
 22
106.4409457059851
 13
0.0
 23
0.0
 14
0.5
 24
0.5
 15
0.5
 25
0.5
 16
0.0
 26
0.0
 36
1.0
 17
0.0
 27
0.0
 37
0.0
 40
113.3818914119703
 41
0.8863849310366128
 42
50.0
 43
0.0
 44
0.0
 50
0.0
 51
0.0
 71
     0
 72
  1000
 73
     1
 74
     3
 75
     0
 76
     0
 77
     0
 78
     0
281
     0
 65
     1
110
0.0
120
0.0
130
0.0
111
1.0
121
0.0
131
0.0
112
0.0
122
1.0
132
0.0
 79
     0
146
0.0
  0
ENDTAB
  0
TABLE
  2
LTYPE
  5
5
330
0
100
AcDbSymbolTable
 70
     1
  0
LTYPE
  5
14
330
5
100
AcDbSymbolTableRecord
100
AcDbLinetypeTableRecord
  2
ByBlock
 70
     0
  3

 72
    65
 73
     0
 40
0.0
  0
LTYPE
  5
15
330
5
100
AcDbSymbolTableRecord
100
AcDbLinetypeTableRecord
  2
ByLayer
 70
     0
  3

 72
    65
 73
     0
 40
0.0
  0
LTYPE
  5
16
330
5
100
AcDbSymbolTableRecord
100
AcDbLinetypeTableRecord
  2
Continuous
 70
     0
  3
Solid line
 72
    65
 73
     0
 40
0.0
  0
ENDTAB
  0
TABLE
  2
LAYER
  5
2
330
0
100
AcDbSymbolTable
 70
     1
  0
LAYER
  5
10
330
2
100
AcDbSymbolTableRecord
100
AcDbLayerTableRecord
  2
0
 70
     0
 62
     7
  6
Continuous
370
    -3
390
F
  0
LAYER
  5
201C7
330
2
100
AcDbSymbolTableRecord
100
AcDbLayerTableRecord
  2
Flurstuecke_Nummern
 70
     0
 62
     7
  6
Continuous
370
    -3
390
F
  0
LAYER
  5
201C8
330
2
100
AcDbSymbolTableRecord
100
AcDbLayerTableRecord
  2
Gebaeude_Hausnummern
 70
     0
 62
     7
  6
Continuous
370
    -3
390
F
  0
LAYER
  5
201C9
330
2
100
AcDbSymbolTableRecord
100
AcDbLayerTableRecord
  2
Lagebezeichnungen
 70
     0
 62
     7
  6
Continuous
370
    -3
390
F
  0
LAYER
  5
201CA
330
2
100
AcDbSymbolTableRecord
100
AcDbLayerTableRecord
  2
Flurstuecke_Flaechen
 70
     0
 62
     7
  6
Continuous
370
    -3
390
F
  0
LAYER
  5
201CB
330
2
100
AcDbSymbolTableRecord
100
AcDbLayerTableRecord
  2
Gebaeude_Flaechen
 70
     0
 62
     7
  6
Continuous
370
    -3
390
F
  0
LAYER
  5
201CC
330
2
100
AcDbSymbolTableRecord
100
AcDbLayerTableRecord
  2
Gebaeude_Flaechen_DES_4300
 70
     0
 62
     7
  6
Continuous
370
    -3
390
F
  0
LAYER
  5
201CD
330
2
100
AcDbSymbolTableRecord
100
AcDbLayerTableRecord
  2
Gruenanlagen
 70
     0
 62
     7
  6
Continuous
370
    -3
390
F
  0
LAYER
  5
201CE
330
2
100
AcDbSymbolTableRecord
100
AcDbLayerTableRecord
  2
Adressen
 70
     0
 62
     7
  6
Continuous
370
    -3
390
F
  0
LAYER
  5
201CF
330
2
100
AcDbSymbolTableRecord
100
AcDbLayerTableRecord
  2
Flurstuecke
 70
     0
 62
     7
  6
Continuous
370
    -3
390
F
  0
ENDTAB
  0
TABLE
  2
STYLE
  5
3
330
0
100
AcDbSymbolTable
 70
     1
  0
STYLE
  5
11
330
3
100
AcDbSymbolTableRecord
100
AcDbTextStyleTableRecord
  2
Standard
 70
     0
 40
0.0
 41
1.0
 50
0.0
 71
     0
 42
0.2
  3
txt
  4

  0
ENDTAB
  0
TABLE
  2
VIEW
  5
6
330
0
100
AcDbSymbolTable
 70
     0
  0
ENDTAB
  0
TABLE
  2
UCS
  5
7
330
0
100
AcDbSymbolTable
 70
     0
  0
ENDTAB
  0
TABLE
  2
APPID
  5
9
330
0
100
AcDbSymbolTable
 70
     1
  0
APPID
  5
12
330
9
100
AcDbSymbolTableRecord
100
AcDbRegAppTableRecord
  2
ACAD
 70
     0
  0
ENDTAB
  0
TABLE
  2
DIMSTYLE
  5
A
330
0
100
AcDbSymbolTable
 70
     1
100
AcDbDimStyleTable
  0
DIMSTYLE
105
27
330
A
100
AcDbSymbolTableRecord
100
AcDbDimStyleTableRecord
  2
Standard
 70
     0
340
11
  0
ENDTAB
  0
TABLE
  2
BLOCK_RECORD
  5
1
330
0
100
AcDbSymbolTable
 70
     1
  0
BLOCK_RECORD
  5
1F
330
1
100
AcDbSymbolTableRecord
100
AcDbBlockTableRecord
  2
*Model_Space
340
22
  0
BLOCK_RECORD
  5
1B
330
1
100
AcDbSymbolTableRecord
100
AcDbBlockTableRecord
  2
*Paper_Space
340
1E
  0
BLOCK_RECORD
  5
23
330
1
100
AcDbSymbolTableRecord
100
AcDbBlockTableRecord
  2
*Paper_Space0
340
26
  0
ENDTAB
  0
ENDSEC
  0
SECTION
  2
BLOCKS
  0
BLOCK
  5
20
330
1F
100
AcDbEntity
  8
0
100
AcDbBlockBegin
  2
*Model_Space
 70
     0
 10
0.0
 20
0.0
 30
0.0
  3
*Model_Space
  1

  0
ENDBLK
  5
21
330
1F
100
AcDbEntity
  8
0
100
AcDbBlockEnd
  0
BLOCK
  5
1C
330
1B
100
AcDbEntity
 67
     1
  8
0
100
AcDbBlockBegin
  2
*Paper_Space
 70
     0
 10
0.0
 20
0.0
 30
0.0
  3
*Paper_Space
  1

  0
ENDBLK
  5
1D
330
1B
100
AcDbEntity
 67
     1
  8
0
100
AcDbBlockEnd
  0
BLOCK
  5
24
330
23
100
AcDbEntity
  8
0
100
AcDbBlockBegin
  2
*Paper_Space0
 70
     0
 10
0.0
 20
0.0
 30
0.0
  3
*Paper_Space0
  1

  0
ENDBLK
  5
25
330
23
100
AcDbEntity
  8
0
100
AcDbBlockEnd
  0
ENDSEC
  0
SECTION
  2
ENTITIES
  0
MTEXT
  5
20000
  8
Flurstuecke_Nummern
100
AcDbEntity
100
AcDbMText
 62
7
 50
0
 40
1.214153
 71
7
  1
300
 10
323455.805708181
 20
5675339.14113094
  0
MTEXT
  5
20001
  8
Flurstuecke_Nummern
100
AcDbEntity
100
AcDbMText
 62
7
 50
0
 40
1.214153
 71
7
  1
305
 10
323463.993831567
 20
5675340.76080126
  0
MTEXT
  5
20002
  8
Flurstuecke_Nummern
100
AcDbEntity
100
AcDbMText
 62
7
 50
0
 40
1.214153
 71
7
  1
298
 10
323442.703061595
 20
5675337.97136904
  0
MTEXT
  5
20003
  8
Flurstuecke_Nummern
100
AcDbEntity
100
AcDbMText
 62
7
 50
360
 40
1.214153
 71
7
  1
281
 10
323485.160913875
 20
5675480.43237152
  0
MTEXT
  5
20004
  8
Flurstuecke_Nummern
100
AcDbEntity
100
AcDbMText
 62
7
 50
360
 40
1.214153
 71
7
  1
282
 10
323489.275590179
 20
5675448.31890812
  0
MTEXT
  5
20005
  8
Flurstuecke_Nummern
100
AcDbEntity
100
AcDbMText
 62
7
 50
0
 40
1.214153
 71
7
  1
280
 10
323457.289960154
 20
5675476.24322421
  0
MTEXT
  5
20006
  8
Flurstuecke_Nummern
100
AcDbEntity
100
AcDbMText
 62
7
 50
0
 40
1.214153
 71
7
  1
345
 10
323420.026989781
 20
5675425.13362742
  0
MTEXT
  5
20007
  8
Flurstuecke_Nummern
100
AcDbEntity
100
AcDbMText
 62
7
 50
0
 40
1.214153
 71
7
  1
274
 10
323414.749649431
 20
5675480.08244274
  0
MTEXT
  5
20008
  8
Flurstuecke_Nummern
100
AcDbEntity
100
AcDbMText
 62
7
 50
0
 40
1.214153
 71
7
  1
206
 10
323439.9489496
 20
5675425.65352159
  0
MTEXT
  5
20009
  8
Flurstuecke_Nummern
100
AcDbEntity
100
AcDbMText
 62
7
 50
0
 40
1.214153
 71
7
  1
356
 10
323411.805883017
 20
5675360.19684511
  0
MTEXT
  5
2000A
  8
Flurstuecke_Nummern
100
AcDbEntity
100
AcDbMText
 62
7
 50
0
 40
1.214153
 71
7
  1
283
 10
323479.512510532
 20
5675432.44213979
  0
MTEXT
  5
2000B
  8
Flurstuecke_Nummern
100
AcDbEntity
100
AcDbMText
 62
7
 50
0
 40
1.214153
 71
7
  1
156
 10
323470.351377519
 20
5675389.69084169
  0
MTEXT
  5
2000C
  8
Flurstuecke_Nummern
100
AcDbEntity
100
AcDbMText
 62
7
 50
360
 40
1.214153
 71
7
  1
343
 10
323476.453302298
 20
5675423.30399983
  0
MTEXT
  5
2000D
  8
Flurstuecke_Nummern
100
AcDbEntity
100
AcDbMText
 62
7
 50
360
 40
1.214153
 71
7
  1
253
 10
323473.715681992
 20
5675327.01359946
  0
MTEXT
  5
2000E
  8
Flurstuecke_Nummern
100
AcDbEntity
100
AcDbMText
 62
7
 50
0
 40
1.214153
 71
7
  1
22
 10
323370.213844388
 20
5675483.91166332
  0
MTEXT
  5
2000F
  8
Flurstuecke_Nummern
100
AcDbEntity
100
AcDbMText
 62
7
 50
360
 40
1.214153
 71
7
  1
154
 10
323491.122659301
 20
5675385.71165165
  0
MTEXT
  5
20010
  8
Flurstuecke_Nummern
100
AcDbEntity
100
AcDbMText
 62
7
 50
0
 40
1.214153
 71
7
  1
207
 10
323451.567344213
 20
5675410.39662709
  0
MTEXT
  5
20011
  8
Flurstuecke_Nummern
100
AcDbEntity
100
AcDbMText
 62
7
 50
360
 40
1.214153
 71
7
  1
153
 10
323498.931473849
 20
5675384.2119569
  0
MTEXT
  5
20012
  8
Flurstuecke_Nummern
100
AcDbEntity
100
AcDbMText
 62
7
 50
360
 40
1.214153
 71
7
  1
155
 10
323483.256123843
 20
5675387.20134842
  0
MTEXT
  5
20013
  8
Flurstuecke_Nummern
100
AcDbEntity
100
AcDbMText
 62
7
 50
360
 40
1.214153
 71
7
  1
253
 10
323427.926508616
 20
5675367.89527812
  0
MTEXT
  5
20014
  8
Flurstuecke_Nummern
100
AcDbEntity
100
AcDbMText
 62
7
 50
0
 40
1.214153
 71
7
  1
355
 10
323406.182217207
 20
5675395.97956164
  0
MTEXT
  5
20015
  8
Flurstuecke_Nummern
100
AcDbEntity
100
AcDbMText
 62
7
 50
0
 40
1.214153
 71
7
  1
218
 10
323500.597134397
 20
5675422.83409548
  0
MTEXT
  5
20016
  8
Flurstuecke_Nummern
100
AcDbEntity
100
AcDbMText
 62
7
 50
0
 40
1.214153
 71
7
  1
188
 10
323419.268372105
 20
5675403.78797226
  0
MTEXT
  5
20017
  8
Flurstuecke_Nummern
100
AcDbEntity
100
AcDbMText
 62
7
 50
0
 40
1.214153
 71
7
  1
165
 10
323425.980489362
 20
5675410.3666332
  0
MTEXT
  5
20018
  8
Flurstuecke_Nummern
100
AcDbEntity
100
AcDbMText
 62
7
 50
0
 40
1.214153
 71
7
  1
57
 10
323431.562925951
 20
5675343.61022127
  0
MTEXT
  5
20019
  8
Flurstuecke_Nummern
100
AcDbEntity
100
AcDbMText
 62
7
 50
360
 40
1.214153
 71
7
  1
158
 10
323429.897265403
 20
5675418.22503364
  0
MTEXT
  5
2001A
  8
Flurstuecke_Nummern
100
AcDbEntity
100
AcDbMText
 62
7
 50
0
 40
1.214153
 71
7
  1
295
 10
323437.219575138
 20
5675365.91568106
  0
MTEXT
  5
2001B
  8
Flurstuecke_Nummern
100
AcDbEntity
100
AcDbMText
 62
7
 50
360
 40
1.214153
 71
7
  1
194
 10
323437.285541892
 20
5675441.04038964
  0
MTEXT
  5
2001C
  8
Flurstuecke_Nummern
100
AcDbEntity
100
AcDbMText
 62
7
 50
0
 40
1.214153
 71
7
  1
219
 10
323500.019925296
 20
5675419.97467751
  0
MTEXT
  5
2001D
  8
Flurstuecke_Nummern
100
AcDbEntity
100
AcDbMText
 62
7
 50
360
 40
1.214153
 71
7
  1
299
 10
323450.124321461
 20
5675340.21091319
  0
MTEXT
  5
2001E
  8
Flurstuecke_Nummern
100
AcDbEntity
100
AcDbMText
 62
7
 50
0
 40
1.214153
 71
7
  1
56
 10
323431.33204231
 20
5675335.57185746
  0
MTEXT
  5
2001F
  8
Flurstuecke_Nummern
100
AcDbEntity
100
AcDbMText
 62
7
 50
0
 40
1.214153
 71
7
  1
162
 10
323444.187313568
 20
5675415.33562177
  0
MTEXT
  5
20020
  8
Flurstuecke_Nummern
100
AcDbEntity
100
AcDbMText
 62
7
 50
360
 40
1.214153
 71
7
  1
171
 10
323434.127383527
 20
5675393.20012739
  0
MTEXT
  5
20021
  8
Flurstuecke_Nummern
100
AcDbEntity
100
AcDbMText
 62
7
 50
0
 40
1.214153
 71
7
  1
170
 10
323431.736088681
 20
5675394.8797855
  0
MTEXT
  5
20022
  8
Flurstuecke_Nummern
100
AcDbEntity
100
AcDbMText
 62
7
 50
360
 40
1.214153
 71
7
  1
252
 10
323423.07795217
 20
5675368.9550624
  0
MTEXT
  5
20023
  8
Flurstuecke_Nummern
100
AcDbEntity
100
AcDbMText
 62
7
 50
360
 40
1.214153
 71
7
  1
58
 10
323432.841031817
 20
5675354.15807428
  0
MTEXT
  5
20024
  8
Flurstuecke_Nummern
100
AcDbEntity
100
AcDbMText
 62
7
 50
0
 40
1.214153
 71
7
  1
297
 10
323436.55166175
 20
5675343.44025587
  0
MTEXT
  5
20025
  8
Flurstuecke_Nummern
100
AcDbEntity
100
AcDbMText
 62
7
 50
0
 40
1.214153
 71
7
  1
166
 10
323425.403280262
 20
5675407.47722133
  0
MTEXT
  5
20026
  8
Flurstuecke_Nummern
100
AcDbEntity
100
AcDbMText
 62
7
 50
0
 40
1.214153
 71
7
  1
168
 10
323427.077186654
 20
5675398.3290834
  0
MTEXT
  5
20027
  8
Flurstuecke_Nummern
100
AcDbEntity
100
AcDbMText
 62
7
 50
0
 40
1.214153
 71
7
  1
172
 10
323436.386744864
 20
5675391.55046317
  0
MTEXT
  5
20028
  8
Flurstuecke_Nummern
100
AcDbEntity
100
AcDbMText
 62
7
 50
0
 40
1.214153
 71
7
  1
187
 10
323424.768350251
 20
5675404.63779928
  0
MTEXT
  5
20029
  8
Flurstuecke_Nummern
100
AcDbEntity
100
AcDbMText
 62
7
 50
0
 40
1.214153
 71
7
  1
161
 10
323441.46618495
 20
5675415.81552409
  0
MTEXT
  5
2002A
  8
Flurstuecke_Nummern
100
AcDbEntity
100
AcDbMText
 62
7
 50
0
 40
1.214153
 71
7
  1
160
 10
323438.481189315
 20
5675416.48538774
  0
MTEXT
  5
2002B
  8
Flurstuecke_Nummern
100
AcDbEntity
100
AcDbMText
 62
7
 50
0
 40
1.214153
 71
7
  1
215
 10
323493.291316351
 20
5675425.69351345
  0
MTEXT
  5
2002C
  8
Flurstuecke_Nummern
100
AcDbEntity
100
AcDbMText
 62
7
 50
0
 40
1.214153
 71
7
  1
296
 10
323437.087641629
 20
5675352.81834698
  0
MTEXT
  5
2002D
  8
Flurstuecke_Nummern
100
AcDbEntity
100
AcDbMText
 62
7
 50
0
 40
1.214153
 71
7
  1
169
 10
323429.394268901
 20
5675396.54944564
  0
MTEXT
  5
2002E
  8
Flurstuecke_Nummern
100
AcDbEntity
100
AcDbMText
 62
7
 50
0
 40
1.214153
 71
7
  1
252
 10
323437.095887473
 20
5675329.05318431
  0
MTEXT
  5
2002F
  8
Flurstuecke_Nummern
100
AcDbEntity
100
AcDbMText
 62
7
 50
360
 40
1.214153
 71
7
  1
264
 10
323468.99081321
 20
5675308.38739078
  0
MTEXT
  5
20030
  8
Flurstuecke_Nummern
100
AcDbEntity
100
AcDbMText
 62
7
 50
0
 40
1.214153
 71
7
  1
216
 10
323501.710323377
 20
5675428.76288869
  0
MTEXT
  5
20031
  8
Flurstuecke_Nummern
100
AcDbEntity
100
AcDbMText
 62
7
 50
0
 40
1.214153
 71
7
  1
217
 10
323501.108376744
 20
5675425.75350124
  0
MTEXT
  5
20032
  8
Flurstuecke_Nummern
100
AcDbEntity
100
AcDbMText
 62
7
 50
0
 40
1.214153
 71
7
  1
163
 10
323438.909973218
 20
5675404.64779725
  0
MTEXT
  5
20033
  8
Flurstuecke_Nummern
100
AcDbEntity
100
AcDbMText
 62
7
 50
0
 40
1.214153
 71
7
  1
199
 10
323448.236023117
 20
5675451.02835662
  0
MTEXT
  5
20034
  8
Flurstuecke_Nummern
100
AcDbEntity
100
AcDbMText
 62
7
 50
0
 40
1.214153
 71
7
  1
159
 10
323435.6116355
 20
5675417.01527988
  0
MTEXT
  5
20035
  8
Flurstuecke_Nummern
100
AcDbEntity
100
AcDbMText
 62
7
 50
0
 40
1.214153
 71
7
  1
164
 10
323426.516469242
 20
5675413.23604913
  0
MTEXT
  5
20036
  8
Flurstuecke_Nummern
100
AcDbEntity
100
AcDbMText
 62
7
 50
0
 40
1.214153
 71
7
  1
352
 10
323290.501267578
 20
5675477.97287214
  0
MTEXT
  5
20037
  8
Flurstuecke_Nummern
100
AcDbEntity
100
AcDbMText
 62
7
 50
0
 40
1.214153
 71
7
  1
95
 10
323348.939566104
 20
5675346.23968605
  0
MTEXT
  5
20038
  8
Flurstuecke_Nummern
100
AcDbEntity
100
AcDbMText
 62
7
 50
360
 40
1.214153
 71
7
  1
98
 10
323385.551114779
 20
5675342.14052042
  0
MTEXT
  5
20039
  8
Flurstuecke_Nummern
100
AcDbEntity
100
AcDbMText
 62
7
 50
360
 40
1.214153
 71
7
  1
71
 10
323359.551967713
 20
5675356.1776632
  0
MTEXT
  5
2003A
  8
Flurstuecke_Nummern
100
AcDbEntity
100
AcDbMText
 62
7
 50
0
 40
1.214153
 71
7
  1
317
 10
323304.849036653
 20
5675464.05570494
  0
MTEXT
  5
2003B
  8
Flurstuecke_Nummern
100
AcDbEntity
100
AcDbMText
 62
7
 50
360
 40
1.214153
 71
7
  1
72
 10
323352.056495248
 20
5675358.47719514
  0
MTEXT
  5
2003C
  8
Flurstuecke_Nummern
100
AcDbEntity
100
AcDbMText
 62
7
 50
0
 40
1.214153
 71
7
  1
67
 10
323369.37276827
 20
5675370.38477139
  0
MTEXT
  5
2003D
  8
Flurstuecke_Nummern
100
AcDbEntity
100
AcDbMText
 62
7
 50
0
 40
1.214153
 71
7
  1
233
 10
323356.245384151
 20
5675396.56944157
  0
MTEXT
  5
2003E
  8
Flurstuecke_Nummern
100
AcDbEntity
100
AcDbMText
 62
7
 50
360
 40
1.214153
 71
7
  1
70
 10
323364.417015848
 20
5675355.33783415
  0
MTEXT
  5
2003F
  8
Flurstuecke_Nummern
100
AcDbEntity
100
AcDbMText
 62
7
 50
0
 40
1.214153
 71
7
  1
73
 10
323339.588778673
 20
5675361.76652561
  0
MTEXT
  5
20040
  8
Flurstuecke_Nummern
100
AcDbEntity
100
AcDbMText
 62
7
 50
0
 40
1.214153
 71
7
  1
232
 10
323372.59689339
 20
5675403.26807809
  0
MTEXT
  5
20041
  8
Flurstuecke_Nummern
100
AcDbEntity
100
AcDbMText
 62
7
 50
0
 40
1.214153
 71
7
  1
314
 10
323357.01224767
 20
5675325.88382943
  0
MTEXT
  5
20042
  8
Flurstuecke_Nummern
100
AcDbEntity
100
AcDbMText
 62
7
 50
0
 40
1.214153
 71
7
  1
326
 10
323396.204745609
 20
5675371.94445392
  0
MTEXT
  5
20043
  8
Flurstuecke_Nummern
100
AcDbEntity
100
AcDbMText
 62
7
 50
360
 40
1.214153
 71
7
  1
316
 10
323303.810060272
 20
5675343.07033116
  0
MTEXT
  5
20044
  8
Flurstuecke_Nummern
100
AcDbEntity
100
AcDbMText
 62
7
 50
360
 40
1.214153
 71
7
  1
318
 10
323308.708091784
 20
5675456.1673106
  0
MTEXT
  5
20045
  8
Flurstuecke_Nummern
100
AcDbEntity
100
AcDbMText
 62
7
 50
0
 40
1.214153
 71
7
  1
99
 10
323395.190506761
 20
5675327.76344683
  0
MTEXT
  5
20046
  8
Flurstuecke_Nummern
100
AcDbEntity
100
AcDbMText
 62
7
 50
0
 40
1.214153
 71
7
  1
76
 10
323351.50402368
 20
5675387.26133621
  0
MTEXT
  5
20047
  8
Flurstuecke_Nummern
100
AcDbEntity
100
AcDbMText
 62
7
 50
0
 40
1.214153
 71
7
  1
97
 10
323363.229614269
 20
5675351.07870108
  0
MTEXT
  5
20048
  8
Flurstuecke_Nummern
100
AcDbEntity
100
AcDbMText
 62
7
 50
0
 40
1.214153
 71
7
  1
327
 10
323402.793175202
 20
5675364.68593137
  0
MTEXT
  5
20049
  8
Flurstuecke_Nummern
100
AcDbEntity
100
AcDbMText
 62
7
 50
0
 40
1.214153
 71
7
  1
75
 10
323348.255161028
 20
5675379.89283605
  0
MTEXT
  5
2004A
  8
Flurstuecke_Nummern
100
AcDbEntity
100
AcDbMText
 62
7
 50
0
 40
1.214153
 71
7
  1
68
 10
323401.58103609
 20
5675354.98790538
  0
MTEXT
  5
2004B
  8
Flurstuecke_Nummern
100
AcDbEntity
100
AcDbMText
 62
7
 50
360
 40
1.214153
 71
7
  1
100
 10
323391.026355391
 20
5675316.57572406
  0
MTEXT
  5
2004C
  8
Flurstuecke_Nummern
100
AcDbEntity
100
AcDbMText
 62
7
 50
0
 40
1.214153
 71
7
  1
319
 10
323311.264303516
 20
5675451.13833423
  0
MTEXT
  5
2004D
  8
Flurstuecke_Nummern
100
AcDbEntity
100
AcDbMText
 62
7
 50
360
 40
1.214153
 71
7
  1
69
 10
323369.051180342
 20
5675354.4380173
  0
MTEXT
  5
2004E
  8
Flurstuecke_Nummern
100
AcDbEntity
100
AcDbMText
 62
7
 50
0
 40
1.214153
 71
7
  1
96
 10
323357.086460269
 20
5675352.93832256
  0
MTEXT
  5
2004F
  8
Flurstuecke_Nummern
100
AcDbEntity
100
AcDbMText
 62
7
 50
0
 40
1.214153
 71
7
  1
325
 10
323314.356495127
 20
5675444.74963463
  0
MTEXT
  5
20050
  8
Flurstuecke_Nummern
100
AcDbEntity
100
AcDbMText
 62
7
 50
0
 40
1.214153
 71
7
  1
74
 10
323344.973314998
 20
5675372.88426262
  0
MTEXT
  5
20051
  8
Flurstuecke_Nummern
100
AcDbEntity
100
AcDbMText
 62
7
 50
0
 40
1.214153
 71
7
  1
85
 10
323320.400698996
 20
5675311.42677212
  0
MTEXT
  5
20052
  8
Flurstuecke_Nummern
100
AcDbEntity
100
AcDbMText
 62
7
 50
0
 40
1.214153
 71
7
  1
366
 10
323330.905904629
 20
5675437.10119145
  0
MTEXT
  5
20053
  8
Flurstuecke_Nummern
100
AcDbEntity
100
AcDbMText
 62
7
 50
0
 40
1.214153
 71
7
  1
364
 10
323299.250108376
 20
5675376.62350151
  0
MTEXT
  5
20054
  8
Flurstuecke_Nummern
100
AcDbEntity
100
AcDbMText
 62
7
 50
0
 40
1.214153
 71
7
  1
367
 10
323346.886350875
 20
5675415.50558718
  0
MTEXT
  5
20055
  8
Flurstuecke_Nummern
100
AcDbEntity
100
AcDbMText
 62
7
 50
360
 40
1.214153
 71
7
  1
362
 10
323275.699977067
 20
5675394.54985266
  0
MTEXT
  5
20056
  8
Flurstuecke_Nummern
100
AcDbEntity
100
AcDbMText
 62
7
 50
0
 40
1.214153
 71
7
  1
365
 10
323317.35798245
 20
5675422.28420741
  0
MTEXT
  5
20057
  8
Gebaeude_Hausnummern
100
AcDbEntity
100
AcDbMText
 62
7
 50
275.9
 40
1.034789
 71
7
  1
228
 10
323409.793897009
 20
5675450.15434572
  0
MTEXT
  5
20058
  8
Gebaeude_Hausnummern
100
AcDbEntity
100
AcDbMText
 62
7
 50
349
 40
1.034789
 71
7
  1
50
 10
323459.301946163
 20
5675356.36518426
  0
MTEXT
  5
20059
  8
Gebaeude_Hausnummern
100
AcDbEntity
100
AcDbMText
 62
7
 50
348.9
 40
1.034789
 71
7
  1
52
 10
323465.255445744
 20
5675355.11594032
  0
MTEXT
  5
2005A
  8
Gebaeude_Hausnummern
100
AcDbEntity
100
AcDbMText
 62
7
 50
349
 40
1.034789
 71
7
  1
32
 10
323487.255358326
 20
5675406.06506799
  0
MTEXT
  5
2005B
  8
Gebaeude_Hausnummern
100
AcDbEntity
100
AcDbMText
 62
7
 50
276.4
 40
1.034789
 71
7
  1
226
 10
323381.428192631
 20
5675466.32803901
  0
MTEXT
  5
2005C
  8
Gebaeude_Hausnummern
100
AcDbEntity
100
AcDbMText
 62
7
 50
78.1
 40
1.034789
 71
7
  1
41
 10
323459.425338322
 20
5675423.01405885
  0
MTEXT
  5
2005D
  8
Gebaeude_Hausnummern
100
AcDbEntity
100
AcDbMText
 62
7
 50
349.1
 40
1.034789
 71
7
  1
54
 10
323501.528914803
 20
5675343.79724513
  0
MTEXT
  5
2005E
  8
Gebaeude_Hausnummern
100
AcDbEntity
100
AcDbMText
 62
7
 50
25.4
 40
1.034789
 71
7
  1
15
 10
323434.13572528
 20
5675314.92605985
  0
MTEXT
  5
2005F
  8
Gebaeude_Hausnummern
100
AcDbEntity
100
AcDbMText
 62
7
 50
348.7
 40
1.034789
 71
7
  1
30
 10
323495.295056515
 20
5675404.53689783
  0
MTEXT
  5
20060
  8
Gebaeude_Hausnummern
100
AcDbEntity
100
AcDbMText
 62
7
 50
268.4
 40
1.034789
 71
7
  1
5
 10
323419.970902499
 20
5675346.55962093
  0
MTEXT
  5
20061
  8
Gebaeude_Hausnummern
100
AcDbEntity
100
AcDbMText
 62
7
 50
268.4
 40
1.034789
 71
7
  1
7
 10
323419.72352717
 20
5675338.06135073
  0
MTEXT
  5
20062
  8
Gebaeude_Hausnummern
100
AcDbEntity
100
AcDbMText
 62
7
 50
268.3
 40
1.034789
 71
7
  1
1
 10
323420.424499303
 20
5675362.55636484
  0
MTEXT
  5
20063
  8
Gebaeude_Hausnummern
100
AcDbEntity
100
AcDbMText
 62
7
 50
78.5
 40
1.034789
 71
7
  1
43
 10
323476.702505269
 20
5675468.7447505
  0
MTEXT
  5
20064
  8
Gebaeude_Hausnummern
100
AcDbEntity
100
AcDbMText
 62
7
 50
348.9
 40
1.034789
 71
7
  1
34
 10
323479.710410795
 20
5675407.57526238
  0
MTEXT
  5
20065
  8
Gebaeude_Hausnummern
100
AcDbEntity
100
AcDbMText
 62
7
 50
348.9
 40
1.034789
 71
7
  1
46
 10
323447.08985076
 20
5675358.76519752
  0
MTEXT
  5
20066
  8
Gebaeude_Hausnummern
100
AcDbEntity
100
AcDbMText
 62
7
 50
268.2
 40
1.034789
 71
7
  1
3
 10
323420.185449751
 20
5675354.25805393
  0
MTEXT
  5
20067
  8
Gebaeude_Hausnummern
100
AcDbEntity
100
AcDbMText
 62
7
 50
348.9
 40
1.034789
 71
7
  1
48
 10
323453.447396712
 20
5675357.50545394
  0
MTEXT
  5
20068
  8
Gebaeude_Hausnummern
100
AcDbEntity
100
AcDbMText
 62
7
 50
335.5
 40
1.034789
 71
7
  1
13
 10
323369.438735024
 20
5675318.26043924
  0
MTEXT
  5
20069
  8
Gebaeude_Hausnummern
100
AcDbEntity
100
AcDbMText
 62
7
 50
295.6
 40
1.034789
 71
7
  1
12
 10
323330.526595791
 20
5675453.29976566
  0
MTEXT
  5
2006A
  8
Gebaeude_Hausnummern
100
AcDbEntity
100
AcDbMText
 62
7
 50
295.4
 40
1.034789
 71
7
  1
6
 10
323320.52438666
 20
5675470.32102695
  0
MTEXT
  5
2006B
  8
Gebaeude_Hausnummern
100
AcDbEntity
100
AcDbMText
 62
7
 50
75.1
 40
1.034789
 71
7
  1
6\~a
 10
323384.658564123
 20
5675355.58778327
  0
MTEXT
  5
2006C
  8
Gebaeude_Hausnummern
100
AcDbEntity
100
AcDbMText
 62
7
 50
320.6
 40
1.034789
 71
7
  1
26
 10
323390.036854076
 20
5675397.98005409
  0
MTEXT
  5
2006D
  8
Gebaeude_Hausnummern
100
AcDbEntity
100
AcDbMText
 62
7
 50
295.7
 40
1.034789
 71
7
  1
8
 10
323325.636810124
 20
5675463.50532834
  0
MTEXT
  5
2006E
  8
Gebaeude_Hausnummern
100
AcDbEntity
100
AcDbMText
 62
7
 50
67.4
 40
1.034789
 71
7
  1
10\~a
 10
323362.560932547
 20
5675344.18010527
  0
MTEXT
  5
2006F
  8
Gebaeude_Hausnummern
100
AcDbEntity
100
AcDbMText
 62
7
 50
269.6
 40
1.034789
 71
7
  1
14
 10
323394.647366504
 20
5675316.06582785
  0
MTEXT
  5
20070
  8
Gebaeude_Hausnummern
100
AcDbEntity
100
AcDbMText
 62
7
 50
321.1
 40
1.034789
 71
7
  1
24
 10
323386.491141028
 20
5675400.69123787
  0
MTEXT
  5
20071
  8
Gebaeude_Hausnummern
100
AcDbEntity
100
AcDbMText
 62
7
 50
67.3
 40
1.034789
 71
7
  1
10\~b
 10
323372.191070699
 20
5675336.89158883
  0
MTEXT
  5
20072
  8
Gebaeude_Hausnummern
100
AcDbEntity
100
AcDbMText
 62
7
 50
75.2
 40
1.034789
 71
7
  1
6
 10
323397.324851789
 20
5675354.42801934
  0
MTEXT
  5
20073
  8
Gebaeude_Hausnummern
100
AcDbEntity
100
AcDbMText
 62
7
 50
354.1
 40
1.034789
 71
7
  1
9
 10
323324.911175826
 20
5675320.13294578
  0
MTEXT
  5
20074
  8
Gebaeude_Hausnummern
100
AcDbEntity
100
AcDbMText
 62
7
 50
67.3
 40
1.034789
 71
7
  1
10
 10
323371.638599131
 20
5675344.2001012
  0
MTEXT
  5
20075
  8
Gebaeude_Hausnummern
100
AcDbEntity
100
AcDbMText
 62
7
 50
66
 40
1.034789
 71
7
  1
8
 10
323357.236114632
 20
5675348.4792302
  0
MTEXT
  5
20076
  8
Gebaeude_Hausnummern
100
AcDbEntity
100
AcDbMText
 62
7
 50
333
 40
1.034789
 71
7
  1
30
 10
323397.614784984
 20
5675386.9548888
  0
MTEXT
  5
20077
  8
Gebaeude_Hausnummern
100
AcDbEntity
100
AcDbMText
 62
7
 50
295.7
 40
1.034789
 71
7
  1
10
 10
323326.741753259
 20
5675461.16580454
  0
MTEXT
  5
20078
  8
Gebaeude_Hausnummern
100
AcDbEntity
100
AcDbMText
 62
7
 50
341.7
 40
1.034789
 71
7
  1
28
 10
323380.669574955
 20
5675367.33125471
  0
MTEXT
  5
20079
  8
Gebaeude_Hausnummern
100
AcDbEntity
100
AcDbMText
 62
7
 50
66.8
 40
1.034789
 71
7
  1
8\~a
 10
323354.869694591
 20
5675342.78039018
  0
MTEXT
  5
2007A
  8
Lagebezeichnungen
100
AcDbEntity
100
AcDbMText
 62
7
 50
268.4
 40
1.448705
 71
7
  1
Gierthmühlenweg
 10
323411.842802644
 20
5675355.6377731
  0
MTEXT
  5
2007B
  8
Lagebezeichnungen
100
AcDbEntity
100
AcDbMText
 62
7
 50
320
 40
1.448705
 71
7
  1
Compesmühlenweg
 10
323387.546609098
 20
5675410.26795995
  0
MTEXT
  5
2007C
  8
Lagebezeichnungen
100
AcDbEntity
100
AcDbMText
 62
7
 50
66
 40
1.448705
 71
7
  1
Compesmühlenweg
 10
323492.851059929
 20
5675437.74106121
  0
MTEXT
  5
2007D
  8
Lagebezeichnungen
100
AcDbEntity
100
AcDbMText
 62
7
 50
349.5
 40
1.448705
 71
7
  1
Fleenerweg
 10
323260.544115251
 20
5675318.00059873
  0
LWPOLYLINE
  5
2007E
  8
Flurstuecke_Flaechen
100
AcDbEntity
100
AcDbPolyline
 70
0
 90
4
 62
7
370
0
 10
323420.068219002
 20
5675371.31458213
 10
323419.961023026
 20
5675372.86426669
 10
323424.718875185
 20
5675372.74429111
 10
323420.068219002
 20
5675371.31458213
  0
LWPOLYLINE
  5
2007F
  8
Flurstuecke_Flaechen
100
AcDbEntity
100
AcDbPolyline
 70
0
 90
5
 62
7
370
0
 10
323428.380030052
 20
5675403.05812082
 10
323422.929526973
 20
5675404.15789697
 10
323423.498490229
 20
5675407.00731697
 10
323428.940747465
 20
5675405.87754694
 10
323428.380030052
 20
5675403.05812082
  0
LWPOLYLINE
  5
20080
  8
Flurstuecke_Flaechen
100
AcDbEntity
100
AcDbPolyline
 70
0
 90
5
 62
7
370
0
 10
323495.501202622
 20
5675419.84470396
 10
323496.119640944
 20
5675422.87408734
 10
323501.96594455
 20
5675421.66433358
 10
323501.339260384
 20
5675418.64494817
 10
323495.501202622
 20
5675419.84470396
  0
LWPOLYLINE
  5
20081
  8
Flurstuecke_Flaechen
100
AcDbEntity
100
AcDbPolyline
 70
0
 90
5
 62
7
370
0
 10
323436.254811355
 20
5675413.33602878
 10
323433.467715983
 20
5675413.92590872
 10
323434.572659119
 20
5675419.20483421
 10
323437.359754491
 20
5675418.62495224
 10
323436.254811355
 20
5675413.33602878
  0
LWPOLYLINE
  5
20082
  8
Flurstuecke_Flaechen
100
AcDbEntity
100
AcDbPolyline
 70
0
 90
16
 62
7
370
0
 10
323426.30207729
 20
5675420.93448214
 10
323429.773577738
 20
5675438.14097981
 10
323441.424955729
 20
5675435.78146008
 10
323452.861941767
 20
5675433.45193425
 10
323457.116797424
 20
5675432.5821113
 10
323463.19398467
 20
5675431.35236161
 10
323471.942825468
 20
5675429.57272385
 10
323466.665485119
 20
5675422.92407716
 10
323461.998337247
 20
5675416.50538367
 10
323460.316185011
 20
5675413.8159311
 10
323445.927186714
 20
5675416.82531855
 10
323443.123599654
 20
5675417.41519848
 10
323440.287029216
 20
5675418.00507841
 10
323437.359754491
 20
5675418.62495224
 10
323434.572659119
 20
5675419.20483421
 10
323426.30207729
 20
5675420.93448214
  0
LWPOLYLINE
  5
20083
  8
Flurstuecke_Flaechen
100
AcDbEntity
100
AcDbPolyline
 70
0
 90
5
 62
7
370
0
 10
323442.018656518
 20
5675412.13627299
 10
323439.18208608
 20
5675412.72615292
 10
323440.287029216
 20
5675418.00507841
 10
323443.123599654
 20
5675417.41519848
 10
323442.018656518
 20
5675412.13627299
  0
LWPOLYLINE
  5
20084
  8
Flurstuecke_Flaechen
100
AcDbEntity
100
AcDbPolyline
 70
0
 90
31
 62
7
370
0
 10
323457.413647819
 20
5675386.96139726
 10
323457.504352106
 20
5675387.67125277
 10
323457.694006525
 20
5675388.36111236
 10
323459.813188509
 20
5675393.79000732
 10
323462.880642587
 20
5675400.6986011
 10
323465.230708211
 20
5675404.99772602
 10
323469.081517498
 20
5675411.36642969
 10
323470.804898956
 20
5675413.65596366
 10
323471.151224416
 20
5675414.05588226
 10
323471.563516631
 20
5675414.3858151
 10
323472.017038067
 20
5675414.63576423
 10
323472.520034569
 20
5675414.80572963
 10
323473.03952276
 20
5675414.88571335
 10
323473.559010951
 20
5675414.86571742
 10
323484.509492176
 20
5675414.19585377
 10
323483.379811507
 20
5675408.41703003
 10
323481.936788755
 20
5675401.07852376
 10
323481.161679391
 20
5675397.10933168
 10
323477.525262057
 20
5675378.54311078
 10
323475.274146564
 20
5675378.9930192
 10
323461.5613075
 20
5675381.75245753
 10
323460.860410735
 20
5675381.95241683
 10
323460.192497347
 20
5675382.25235577
 10
323459.56581318
 20
5675382.62228048
 10
323458.996849924
 20
5675383.08218687
 10
323458.493853422
 20
5675383.61207901
 10
323458.065069518
 20
5675384.20195894
 10
323457.759973279
 20
5675384.85182666
 10
323457.545581328
 20
5675385.53168828
 10
323457.430139507
 20
5675386.24154379
 10
323457.413647819
 20
5675386.96139726
  0
LWPOLYLINE
  5
20085
  8
Flurstuecke_Flaechen
100
AcDbEntity
100
AcDbPolyline
 70
0
 90
6
 62
7
370
0
 10
323430.680620611
 20
5675414.50579068
 10
323425.238363376
 20
5675415.64555869
 10
323426.30207729
 20
5675420.93448214
 10
323434.572659119
 20
5675419.20483421
 10
323433.467715983
 20
5675413.92590872
 10
323430.680620611
 20
5675414.50579068
  0
LWPOLYLINE
  5
20086
  8
Flurstuecke_Flaechen
100
AcDbEntity
100
AcDbPolyline
 70
0
 90
8
 62
7
370
0
 10
323418.666425472
 20
5675322.89443791
 10
323418.996259244
 20
5675334.64204672
 10
323419.210651195
 20
5675342.32048379
 10
323427.769837575
 20
5675342.01054688
 10
323428.404767585
 20
5675341.98055298
 10
323434.308792101
 20
5675341.77059572
 10
323433.970712485
 20
5675330.56287702
 10
323418.666425472
 20
5675322.89443791
  0
LWPOLYLINE
  5
20087
  8
Flurstuecke_Flaechen
100
AcDbEntity
100
AcDbPolyline
 70
0
 90
6
 62
7
370
0
 10
323440.526158701
 20
5675438.89082718
 10
323430.334295151
 20
5675440.96040592
 10
323423.226377367
 20
5675442.40011287
 10
323430.688866455
 20
5675443.12996431
 10
323442.299015224
 20
5675444.26973232
 10
323440.526158701
 20
5675438.89082718
  0
LWPOLYLINE
  5
20088
  8
Flurstuecke_Flaechen
100
AcDbEntity
100
AcDbPolyline
 70
0
 90
18
 62
7
370
0
 10
323356.360825971
 20
5675355.47780566
 10
323352.922308899
 20
5675355.06788909
 10
323353.590222287
 20
5675357.58737626
 10
323354.620952824
 20
5675361.46658666
 10
323354.84359062
 20
5675362.31641368
 10
323355.585716607
 20
5675365.24581741
 10
323355.659929206
 20
5675365.53575839
 10
323359.477755115
 20
5675364.35599853
 10
323361.844312428
 20
5675363.62614709
 10
323362.825567899
 20
5675365.83569734
 10
323364.491228447
 20
5675365.34579706
 10
323364.285082339
 20
5675364.5359619
 10
323362.850305432
 20
5675358.8871117
 10
323362.602930103
 20
5675357.89731317
 10
323362.009229314
 20
5675355.55778938
 10
323361.720624763
 20
5675354.41802137
 10
323360.52497734
 20
5675354.65797253
 10
323356.360825971
 20
5675355.47780566
  0
LWPOLYLINE
  5
20089
  8
Flurstuecke_Flaechen
100
AcDbEntity
100
AcDbPolyline
 70
0
 90
8
 62
7
370
0
 10
323324.80397985
 20
5675481.3221904
 10
323330.015353445
 20
5675470.56438012
 10
323322.92392735
 20
5675467.16507204
 10
323315.032654359
 20
5675463.37584332
 10
323302.960738309
 20
5675457.58702162
 10
323296.39704625
 20
5675471.06427837
 10
323303.282326237
 20
5675470.97429668
 10
323324.80397985
 20
5675481.3221904
  0
LWPOLYLINE
  5
2008A
  8
Flurstuecke_Flaechen
100
AcDbEntity
100
AcDbPolyline
 70
0
 90
5
 62
7
370
0
 10
323442.018656518
 20
5675412.13627299
 10
323443.123599654
 20
5675417.41519848
 10
323445.927186714
 20
5675416.82531855
 10
323444.822243579
 20
5675411.54639306
 10
323442.018656518
 20
5675412.13627299
  0
LWPOLYLINE
  5
2008B
  8
Flurstuecke_Flaechen
100
AcDbEntity
100
AcDbPolyline
 70
0
 90
5
 62
7
370
0
 10
323496.119640944
 20
5675422.87408734
 10
323496.721587578
 20
5675425.76349921
 10
323502.55964534
 20
5675424.55374545
 10
323501.96594455
 20
5675421.66433358
 10
323496.119640944
 20
5675422.87408734
  0
LWPOLYLINE
  5
2008C
  8
Flurstuecke_Flaechen
100
AcDbEntity
100
AcDbPolyline
 70
0
 90
11
 62
7
370
0
 10
323434.778805226
 20
5675357.56738033
 10
323434.778805226
 20
5675357.65736202
 10
323434.820034448
 20
5675358.78713205
 10
323434.844771981
 20
5675359.60696518
 10
323434.960213801
 20
5675363.65614098
 10
323435.009688866
 20
5675365.16583369
 10
323435.149868219
 20
5675370.05483854
 10
323439.759295181
 20
5675368.68511735
 10
323437.425721245
 20
5675357.03748819
 10
323435.001443022
 20
5675357.51739051
 10
323434.778805226
 20
5675357.56738033
  0
LWPOLYLINE
  5
2008D
  8
Flurstuecke_Flaechen
100
AcDbEntity
100
AcDbPolyline
 70
0
 90
9
 62
7
370
0
 10
323419.210651195
 20
5675342.32048379
 10
323419.458026524
 20
5675351.1586848
 10
323430.796062431
 20
5675350.7587662
 10
323434.572659119
 20
5675350.62879266
 10
323434.448971454
 20
5675346.39965349
 10
323434.308792101
 20
5675341.77059572
 10
323428.404767585
 20
5675341.98055298
 10
323427.769837575
 20
5675342.01054688
 10
323419.210651195
 20
5675342.32048379
  0
LWPOLYLINE
  5
2008E
  8
Flurstuecke_Flaechen
100
AcDbEntity
100
AcDbPolyline
 70
0
 90
5
 62
7
370
0
 10
323425.139413244
 20
5675398.5590366
 10
323428.380030052
 20
5675403.05812082
 10
323430.705358144
 20
5675401.38846068
 10
323427.47298718
 20
5675396.88937645
 10
323425.139413244
 20
5675398.5590366
  0
LWPOLYLINE
  5
2008F
  8
Flurstuecke_Flaechen
100
AcDbEntity
100
AcDbPolyline
 70
0
 90
8
 62
7
370
0
 10
323339.118765548
 20
5675451.89817957
 10
323312.055904568
 20
5675438.88082921
 10
323307.924736576
 20
5675447.36910145
 10
323319.938931715
 20
5675453.13792722
 10
323330.36992475
 20
5675458.15690562
 10
323334.929876645
 20
5675460.34645995
 10
323338.203476831
 20
5675453.54784379
 10
323339.118765548
 20
5675451.89817957
  0
LWPOLYLINE
  5
20090
  8
Flurstuecke_Flaechen
100
AcDbEntity
100
AcDbPolyline
 70
0
 90
63
 62
7
370
0
 10
323428.380030052
 20
5675403.05812082
 10
323428.940747465
 20
5675405.87754694
 10
323429.517956565
 20
5675408.74696287
 10
323430.095165666
 20
5675411.60638085
 10
323430.680620611
 20
5675414.50579068
 10
323433.467715983
 20
5675413.92590872
 10
323436.254811355
 20
5675413.33602878
 10
323439.18208608
 20
5675412.72615292
 10
323442.018656518
 20
5675412.13627299
 10
323444.822243579
 20
5675411.54639306
 10
323444.995406309
 20
5675410.83653755
 10
323445.251027482
 20
5675410.14667797
 10
323445.57261541
 20
5675409.48681228
 10
323445.960170092
 20
5675408.86693845
 10
323446.413691528
 20
5675408.28705649
 10
323446.924933874
 20
5675407.76716231
 10
323447.568109729
 20
5675407.23727017
 10
323448.269006494
 20
5675406.79735971
 10
323449.011132481
 20
5675406.44743094
 10
323449.794487689
 20
5675406.18748385
 10
323450.60258043
 20
5675406.01751844
 10
323451.303477195
 20
5675405.95753066
 10
323452.020865649
 20
5675405.95753066
 10
323452.721762414
 20
5675406.03751437
 10
323453.414413335
 20
5675406.19748181
 10
323454.090572567
 20
5675406.41743704
 10
323454.741994267
 20
5675406.70737803
 10
323455.451136876
 20
5675407.13729052
 10
323456.102558576
 20
5675407.63718877
 10
323456.696259365
 20
5675408.21707073
 10
323457.207501711
 20
5675408.85694049
 10
323457.644531459
 20
5675409.566796
 10
323455.137794793
 20
5675404.717783
 10
323451.633310967
 20
5675397.43926452
 10
323448.895690661
 20
5675389.8608071
 10
323449.118328457
 20
5675390.64064836
 10
323449.274999499
 20
5675391.43048759
 10
323449.365703786
 20
5675392.23032479
 10
323449.390441319
 20
5675393.03016198
 10
323449.357457942
 20
5675393.83999714
 10
323449.118328457
 20
5675394.44987301
 10
323448.804986374
 20
5675395.02975497
 10
323448.409185848
 20
5675395.56964508
 10
323447.955664411
 20
5675396.03954943
 10
323447.436176221
 20
5675396.44946599
 10
323446.867212964
 20
5675396.7893968
 10
323446.273512175
 20
5675397.05934186
 10
323445.646828008
 20
5675397.25930115
 10
323445.003652153
 20
5675397.36927877
 10
323444.352230454
 20
5675397.3892747
 10
323443.700808754
 20
5675397.32928691
 10
323443.065878744
 20
5675397.17931744
 10
323442.439194577
 20
5675396.93936628
 10
323441.845493788
 20
5675396.62942936
 10
323441.309513909
 20
5675396.22951077
 10
323440.823009095
 20
5675395.76960438
 10
323440.41071688
 20
5675395.23971224
 10
323440.072637264
 20
5675394.66982823
 10
323437.730817484
 20
5675396.33948838
 10
323435.430226926
 20
5675397.99915056
 10
323433.030686235
 20
5675399.71880053
 10
323430.705358144
 20
5675401.38846068
 10
323428.380030052
 20
5675403.05812082
  0
LWPOLYLINE
  5
20091
  8
Flurstuecke_Flaechen
100
AcDbEntity
100
AcDbPolyline
 70
0
 90
6
 62
7
370
0
 10
323440.369487659
 20
5675356.44760826
 10
323437.425721245
 20
5675357.03748819
 10
323439.759295181
 20
5675368.68511735
 10
323442.645340685
 20
5675367.84528829
 10
323441.548643393
 20
5675362.33640961
 10
323440.369487659
 20
5675356.44760826
  0
LWPOLYLINE
  5
20092
  8
Flurstuecke_Flaechen
100
AcDbEntity
100
AcDbPolyline
 70
0
 90
11
 62
7
370
0
 10
323445.185060728
 20
5675332.7924232
 10
323451.748752787
 20
5675334.09215864
 10
323458.254723937
 20
5675335.39189409
 10
323460.514085274
 20
5675335.83180454
 10
323461.825174517
 20
5675333.03237436
 10
323434.984951334
 20
5675327.71345701
 10
323418.62519625
 20
5675319.51512576
 10
323418.666425472
 20
5675322.89443791
 10
323433.970712485
 20
5675330.56287702
 10
323438.761548021
 20
5675331.51268369
 10
323445.185060728
 20
5675332.7924232
  0
LWPOLYLINE
  5
20093
  8
Flurstuecke_Flaechen
100
AcDbEntity
100
AcDbPolyline
 70
0
 90
5
 62
7
370
0
 10
323432.197855962
 20
5675393.49006837
 10
323435.430226926
 20
5675397.99915056
 10
323437.730817484
 20
5675396.33948838
 10
323434.49844652
 20
5675391.84040416
 10
323432.197855962
 20
5675393.49006837
  0
LWPOLYLINE
  5
20094
  8
Flurstuecke_Flaechen
100
AcDbEntity
100
AcDbPolyline
 70
0
 90
5
 62
7
370
0
 10
323434.49844652
 20
5675391.84040416
 10
323437.730817484
 20
5675396.33948838
 10
323440.072637264
 20
5675394.66982823
 10
323436.832020456
 20
5675390.16074605
 10
323434.49844652
 20
5675391.84040416
  0
LWPOLYLINE
  5
20095
  8
Flurstuecke_Flaechen
100
AcDbEntity
100
AcDbPolyline
 70
0
 90
13
 62
7
370
0
 10
323474.029024075
 20
5675432.20218863
 10
323475.925568263
 20
5675434.59170225
 10
323485.136176342
 20
5675435.05160864
 10
323483.363319818
 20
5675432.59210926
 10
323482.992256825
 20
5675432.15219881
 10
323482.563472922
 20
5675431.77227614
 10
323482.076968108
 20
5675431.45234126
 10
323481.557479918
 20
5675431.2123901
 10
323481.029745883
 20
5675431.05242266
 10
323480.485520159
 20
5675430.96244098
 10
323479.933048591
 20
5675430.95244301
 10
323479.380577023
 20
5675431.02242877
 10
323474.029024075
 20
5675432.20218863
  0
LWPOLYLINE
  5
20096
  8
Flurstuecke_Flaechen
100
AcDbEntity
100
AcDbPolyline
 70
0
 90
5
 62
7
370
0
 10
323424.628170898
 20
5675412.74614885
 10
323425.238363376
 20
5675415.64555869
 10
323430.680620611
 20
5675414.50579068
 10
323430.095165666
 20
5675411.60638085
 10
323424.628170898
 20
5675412.74614885
  0
LWPOLYLINE
  5
20097
  8
Flurstuecke_Flaechen
100
AcDbEntity
100
AcDbPolyline
 70
0
 90
5
 62
7
370
0
 10
323432.197855962
 20
5675393.49006837
 10
323429.790069427
 20
5675395.21971631
 10
323433.030686235
 20
5675399.71880053
 10
323435.430226926
 20
5675397.99915056
 10
323432.197855962
 20
5675393.49006837
  0
LWPOLYLINE
  5
20098
  8
Flurstuecke_Flaechen
100
AcDbEntity
100
AcDbPolyline
 70
0
 90
11
 62
7
370
0
 10
323438.761548021
 20
5675331.51268369
 10
323439.388232188
 20
5675351.5586034
 10
323440.369487659
 20
5675356.44760826
 10
323441.548643393
 20
5675362.33640961
 10
323442.645340685
 20
5675367.84528829
 10
323451.60032759
 20
5675365.19582758
 10
323450.48713861
 20
5675359.58696925
 10
323448.532873512
 20
5675349.76896768
 10
323447.642322328
 20
5675345.24988752
 10
323445.185060728
 20
5675332.7924232
 10
323438.761548021
 20
5675331.51268369
  0
LWPOLYLINE
  5
20099
  8
Flurstuecke_Flaechen
100
AcDbEntity
100
AcDbPolyline
 70
0
 90
5
 62
7
370
0
 10
323429.790069427
 20
5675395.21971631
 10
323427.47298718
 20
5675396.88937645
 10
323430.705358144
 20
5675401.38846068
 10
323433.030686235
 20
5675399.71880053
 10
323429.790069427
 20
5675395.21971631
  0
LWPOLYLINE
  5
2009A
  8
Flurstuecke_Flaechen
100
AcDbEntity
100
AcDbPolyline
 70
0
 90
5
 62
7
370
0
 10
323502.55964534
 20
5675424.55374545
 10
323496.721587578
 20
5675425.76349921
 10
323497.3400259
 20
5675428.77288666
 10
323503.186329506
 20
5675427.57313086
 10
323502.55964534
 20
5675424.55374545
  0
LWPOLYLINE
  5
2009B
  8
Flurstuecke_Flaechen
100
AcDbEntity
100
AcDbPolyline
 70
0
 90
5
 62
7
370
0
 10
323424.07569933
 20
5675409.88673088
 10
323424.628170898
 20
5675412.74614885
 10
323430.095165666
 20
5675411.60638085
 10
323429.517956565
 20
5675408.74696287
 10
323424.07569933
 20
5675409.88673088
  0
LWPOLYLINE
  5
2009C
  8
Flurstuecke_Flaechen
100
AcDbEntity
100
AcDbPolyline
 70
0
 90
5
 62
7
370
0
 10
323439.18208608
 20
5675412.72615292
 10
323436.254811355
 20
5675413.33602878
 10
323437.359754491
 20
5675418.62495224
 10
323440.287029216
 20
5675418.00507841
 10
323439.18208608
 20
5675412.72615292
  0
LWPOLYLINE
  5
2009D
  8
Flurstuecke_Flaechen
100
AcDbEntity
100
AcDbPolyline
 70
0
 90
8
 62
7
370
0
 10
323346.729679833
 20
5675340.94076463
 10
323348.321127782
 20
5675348.55921392
 10
323356.929789227
 20
5675345.26988345
 10
323355.684666738
 20
5675342.02054484
 10
323354.686919579
 20
5675339.42107396
 10
323354.134448011
 20
5675337.97136904
 10
323348.22217765
 20
5675340.34088673
 10
323346.729679833
 20
5675340.94076463
  0
LWPOLYLINE
  5
2009E
  8
Flurstuecke_Flaechen
100
AcDbEntity
100
AcDbPolyline
 70
0
 90
10
 62
7
370
0
 10
323495.501202622
 20
5675419.84470396
 10
323485.408289204
 20
5675421.92428067
 10
323488.038713534
 20
5675425.0236498
 10
323493.109907776
 20
5675432.08221305
 10
323493.415004015
 20
5675432.61210519
 10
323497.941972534
 20
5675431.68229445
 10
323497.3400259
 20
5675428.77288666
 10
323496.721587578
 20
5675425.76349921
 10
323496.119640944
 20
5675422.87408734
 10
323495.501202622
 20
5675419.84470396
  0
LWPOLYLINE
  5
2009F
  8
Flurstuecke_Flaechen
100
AcDbEntity
100
AcDbPolyline
 70
0
 90
5
 62
7
370
0
 10
323428.940747465
 20
5675405.87754694
 10
323423.498490229
 20
5675407.00731697
 10
323424.07569933
 20
5675409.88673088
 10
323429.517956565
 20
5675408.74696287
 10
323428.940747465
 20
5675405.87754694
  0
LWPOLYLINE
  5
200A0
  8
Flurstuecke_Flaechen
100
AcDbEntity
100
AcDbPolyline
 70
0
 90
10
 62
7
370
0
 10
323445.185060728
 20
5675332.7924232
 10
323447.642322328
 20
5675345.24988752
 10
323448.532873512
 20
5675349.76896768
 10
323450.48713861
 20
5675359.58696925
 10
323451.60032759
 20
5675365.19582758
 10
323457.553827172
 20
5675363.44618372
 10
323456.547834168
 20
5675358.38721346
 10
323454.626552447
 20
5675348.56921188
 10
323451.748752787
 20
5675334.09215864
 10
323445.185060728
 20
5675332.7924232
  0
LWPOLYLINE
  5
200A1
  8
Flurstuecke_Flaechen
100
AcDbEntity
100
AcDbPolyline
 70
0
 90
9
 62
7
370
0
 10
323319.938931715
 20
5675453.13792722
 10
323307.924736576
 20
5675447.36910145
 10
323305.442737443
 20
5675452.47806154
 10
323317.498161803
 20
5675458.26688324
 10
323327.49212509
 20
5675463.06590641
 10
323332.472615045
 20
5675465.45542003
 10
323334.929876645
 20
5675460.34645995
 10
323330.36992475
 20
5675458.15690562
 10
323319.938931715
 20
5675453.13792722
  0
LWPOLYLINE
  5
200A2
  8
Flurstuecke_Flaechen
100
AcDbEntity
100
AcDbPolyline
 70
0
 90
6
 62
7
370
0
 10
323442.299015224
 20
5675444.26973232
 10
323448.310235716
 20
5675461.0163236
 10
323450.915922514
 20
5675468.27484615
 10
323452.202274224
 20
5675445.23953492
 10
323444.624343316
 20
5675444.49968551
 10
323442.299015224
 20
5675444.26973232
  0
LWPOLYLINE
  5
200A3
  8
Flurstuecke_Flaechen
100
AcDbEntity
100
AcDbPolyline
 70
0
 90
6
 62
7
370
0
 10
323422.929526973
 20
5675404.15789697
 10
323428.380030052
 20
5675403.05812082
 10
323425.139413244
 20
5675398.5590366
 10
323424.290091282
 20
5675399.16891246
 10
323422.220384363
 20
5675400.65860924
 10
323422.929526973
 20
5675404.15789697
  0
LWPOLYLINE
  5
200A4
  8
Flurstuecke_Flaechen
100
AcDbEntity
100
AcDbPolyline
 70
0
 90
4
 62
7
370
0
 10
323489.679636549
 20
5675482.34198282
 10
323490.743350463
 20
5675481.45216394
 10
323490.462991757
 20
5675480.61233489
 10
323489.679636549
 20
5675482.34198282
  0
LWPOLYLINE
  5
200A5
  8
Flurstuecke_Flaechen
100
AcDbEntity
100
AcDbPolyline
 70
0
 90
76
 62
7
370
0
 10
323399.329920597
 20
5675411.98630352
 10
323423.226377367
 20
5675442.40011287
 10
323430.334295151
 20
5675440.96040592
 10
323440.526158701
 20
5675438.89082718
 10
323442.299015224
 20
5675444.26973232
 10
323444.624343316
 20
5675444.49968551
 10
323452.202274224
 20
5675445.23953492
 10
323452.861941767
 20
5675433.45193425
 10
323441.424955729
 20
5675435.78146008
 10
323429.773577738
 20
5675438.14097981
 10
323426.30207729
 20
5675420.93448214
 10
323425.238363376
 20
5675415.64555869
 10
323424.628170898
 20
5675412.74614885
 10
323424.07569933
 20
5675409.88673088
 10
323423.498490229
 20
5675407.00731697
 10
323422.929526973
 20
5675404.15789697
 10
323422.220384363
 20
5675400.65860924
 10
323424.290091282
 20
5675399.16891246
 10
323425.139413244
 20
5675398.5590366
 10
323427.47298718
 20
5675396.88937645
 10
323429.790069427
 20
5675395.21971631
 10
323432.197855962
 20
5675393.49006837
 10
323434.49844652
 20
5675391.84040416
 10
323436.832020456
 20
5675390.16074605
 10
323440.072637264
 20
5675394.66982823
 10
323440.41071688
 20
5675395.23971224
 10
323440.823009095
 20
5675395.76960438
 10
323441.309513909
 20
5675396.22951077
 10
323441.845493788
 20
5675396.62942936
 10
323442.439194577
 20
5675396.93936628
 10
323443.065878744
 20
5675397.17931744
 10
323443.700808754
 20
5675397.32928691
 10
323444.352230454
 20
5675397.3892747
 10
323445.003652153
 20
5675397.36927877
 10
323445.646828008
 20
5675397.25930115
 10
323446.273512175
 20
5675397.05934186
 10
323446.867212964
 20
5675396.7893968
 10
323447.436176221
 20
5675396.44946599
 10
323447.955664411
 20
5675396.03954943
 10
323448.409185848
 20
5675395.56964508
 10
323448.804986374
 20
5675395.02975497
 10
323449.118328457
 20
5675394.44987301
 10
323449.357457942
 20
5675393.83999714
 10
323449.390441319
 20
5675393.03016198
 10
323449.365703786
 20
5675392.23032479
 10
323449.274999499
 20
5675391.43048759
 10
323449.118328457
 20
5675390.64064836
 10
323448.895690661
 20
5675389.8608071
 10
323448.615331955
 20
5675389.14095362
 10
323448.269006494
 20
5675388.44109607
 10
323447.85671428
 20
5675387.79122835
 10
323447.378455311
 20
5675387.18135249
 10
323446.842475431
 20
5675386.61146849
 10
323446.257020486
 20
5675386.10157228
 10
323445.721040607
 20
5675385.74164554
 10
323445.160323195
 20
5675385.43170863
 10
323444.57486825
 20
5675385.16176357
 10
323443.915200706
 20
5675384.92181242
 10
323443.239041474
 20
5675384.74184905
 10
323442.546390553
 20
5675384.62187347
 10
323441.853739632
 20
5675384.56188568
 10
323440.699321431
 20
5675384.49189992
 10
323439.536657385
 20
5675384.48190196
 10
323438.382239184
 20
5675384.56188568
 10
323437.236066826
 20
5675384.70185719
 10
323436.098140314
 20
5675384.93181038
 10
323434.976705489
 20
5675385.22175136
 10
323433.896499886
 20
5675385.5816781
 10
323432.841031817
 20
5675386.00159263
 10
323431.81030128
 20
5675386.50149088
 10
323430.81255412
 20
5675387.05137895
 10
323429.856036181
 20
5675387.67125277
 10
323428.940747465
 20
5675388.35111439
 10
323420.835082522
 20
5675394.81979771
 10
323418.839588202
 20
5675396.40947413
 10
323399.329920597
 20
5675411.98630352
  0
LWPOLYLINE
  5
200A6
  8
Flurstuecke_Flaechen
100
AcDbEntity
100
AcDbPolyline
 70
0
 90
6
 62
7
370
0
 10
323382.450677323
 20
5675313.42636511
 10
323383.225786687
 20
5675323.56430156
 10
323384.281254757
 20
5675326.75365238
 10
323396.922134063
 20
5675321.62469636
 10
323396.509841848
 20
5675311.96666222
 10
323382.450677323
 20
5675313.42636511
  0
LWPOLYLINE
  5
200A7
  8
Flurstuecke_Flaechen
100
AcDbEntity
100
AcDbPolyline
 70
0
 90
15
 62
7
370
0
 10
323419.903302116
 20
5675365.79570548
 10
323420.068219002
 20
5675371.31458213
 10
323424.718875185
 20
5675372.74429111
 10
323429.58392332
 20
5675372.62431553
 10
323435.149868219
 20
5675370.05483854
 10
323435.009688866
 20
5675365.16583369
 10
323434.960213801
 20
5675363.65614098
 10
323434.844771981
 20
5675359.60696518
 10
323434.820034448
 20
5675358.78713205
 10
323434.300546257
 20
5675358.80712798
 10
323427.712116664
 20
5675359.087071
 10
323427.670887443
 20
5675358.06727858
 10
323425.510476237
 20
5675358.15726026
 10
323419.68066432
 20
5675358.40720939
 10
323419.903302116
 20
5675365.79570548
  0
LWPOLYLINE
  5
200A8
  8
Flurstuecke_Flaechen
100
AcDbEntity
100
AcDbPolyline
 70
0
 90
11
 62
7
370
0
 10
323433.970712485
 20
5675330.56287702
 10
323434.308792101
 20
5675341.77059572
 10
323434.448971454
 20
5675346.39965349
 10
323434.572659119
 20
5675350.62879266
 10
323434.778805226
 20
5675357.56738033
 10
323435.001443022
 20
5675357.51739051
 10
323437.425721245
 20
5675357.03748819
 10
323440.369487659
 20
5675356.44760826
 10
323439.388232188
 20
5675351.5586034
 10
323438.761548021
 20
5675331.51268369
 10
323433.970712485
 20
5675330.56287702
  0
LWPOLYLINE
  5
200A9
  8
Flurstuecke_Flaechen
100
AcDbEntity
100
AcDbPolyline
 70
0
 90
26
 62
7
370
0
 10
323446.924933874
 20
5675407.76716231
 10
323446.413691528
 20
5675408.28705649
 10
323445.960170092
 20
5675408.86693845
 10
323445.57261541
 20
5675409.48681228
 10
323445.251027482
 20
5675410.14667797
 10
323444.995406309
 20
5675410.83653755
 10
323444.822243579
 20
5675411.54639306
 10
323445.927186714
 20
5675416.82531855
 10
323460.316185011
 20
5675413.8159311
 10
323457.644531459
 20
5675409.566796
 10
323457.207501711
 20
5675408.85694049
 10
323456.696259365
 20
5675408.21707073
 10
323456.102558576
 20
5675407.63718877
 10
323455.451136876
 20
5675407.13729052
 10
323454.741994267
 20
5675406.70737803
 10
323454.090572567
 20
5675406.41743704
 10
323453.414413335
 20
5675406.19748181
 10
323452.721762414
 20
5675406.03751437
 10
323452.020865649
 20
5675405.95753066
 10
323451.303477195
 20
5675405.95753066
 10
323450.60258043
 20
5675406.01751844
 10
323449.794487689
 20
5675406.18748385
 10
323449.011132481
 20
5675406.44743094
 10
323448.269006494
 20
5675406.79735971
 10
323447.568109729
 20
5675407.23727017
 10
323446.924933874
 20
5675407.76716231
  0
LWPOLYLINE
  5
200AA
  8
Flurstuecke_Flaechen
100
AcDbEntity
100
AcDbPolyline
 70
0
 90
25
 62
7
370
0
 10
323484.352821134
 20
5675445.80941892
 10
323488.005730157
 20
5675453.04794554
 10
323490.718612931
 20
5675460.64639889
 10
323491.518459827
 20
5675464.90553196
 10
323492.128652305
 20
5675464.39563575
 10
323492.77182816
 20
5675463.9257314
 10
323493.456233237
 20
5675463.50581687
 10
323494.165375846
 20
5675463.14589013
 10
323494.70960157
 20
5675462.85594915
 10
323495.196106383
 20
5675462.47602648
 10
323495.616644442
 20
5675462.03611602
 10
323495.971215747
 20
5675461.53621777
 10
323496.243328609
 20
5675460.9863297
 10
323496.424737183
 20
5675460.38645181
 10
323496.515441471
 20
5675459.76657798
 10
323496.507195626
 20
5675459.13670619
 10
323496.399999651
 20
5675458.52683033
 10
323496.202099387
 20
5675457.92695243
 10
323494.429242864
 20
5675452.93796792
 10
323490.108420453
 20
5675443.31992565
 10
323486.100940125
 20
5675436.38133798
 10
323485.136176342
 20
5675435.05160864
 10
323475.925568263
 20
5675434.59170225
 10
323480.873074841
 20
5675440.83043238
 10
323484.352821134
 20
5675445.80941892
  0
LWPOLYLINE
  5
200AB
  8
Flurstuecke_Flaechen
100
AcDbEntity
100
AcDbPolyline
 70
0
 90
13
 62
7
370
0
 10
323485.375305827
 20
5675376.98342825
 10
323489.011723161
 20
5675395.51965525
 10
323489.795078369
 20
5675399.51884123
 10
323491.238101121
 20
5675406.86734547
 10
323492.582173741
 20
5675413.70595349
 10
323500.654855307
 20
5675413.2160532
 10
323499.096390735
 20
5675405.3176609
 10
323498.420231503
 20
5675401.87836096
 10
323497.645122139
 20
5675397.9591587
 10
323497.405992655
 20
5675396.72940901
 10
323496.870012775
 20
5675393.99996458
 10
323493.217103752
 20
5675375.43374368
 10
323485.375305827
 20
5675376.98342825
  0
LWPOLYLINE
  5
200AC
  8
Flurstuecke_Flaechen
100
AcDbEntity
100
AcDbPolyline
 70
0
 90
11
 62
7
370
0
 10
323392.411657233
 20
5675369.97485483
 10
323383.1350824
 20
5675372.01443967
 10
323384.800742948
 20
5675376.60350558
 10
323387.348708835
 20
5675383.63207494
 10
323393.632042189
 20
5675396.99935407
 10
323403.63425132
 20
5675389.12095769
 10
323405.390616155
 20
5675385.43170863
 10
323404.961832252
 20
5675368.94506444
 10
323400.814172571
 20
5675369.11502984
 10
323392.27147788
 20
5675369.38497489
 10
323392.411657233
 20
5675369.97485483
  0
LWPOLYLINE
  5
200AD
  8
Flurstuecke_Flaechen
100
AcDbEntity
100
AcDbPolyline
 70
0
 90
11
 62
7
370
0
 10
323477.525262057
 20
5675378.54311078
 10
323481.161679391
 20
5675397.10933168
 10
323481.936788755
 20
5675401.07852376
 10
323483.379811507
 20
5675408.41703003
 10
323484.509492176
 20
5675414.19585377
 10
323492.582173741
 20
5675413.70595349
 10
323491.238101121
 20
5675406.86734547
 10
323489.795078369
 20
5675399.51884123
 10
323489.011723161
 20
5675395.51965525
 10
323485.375305827
 20
5675376.98342825
 10
323477.525262057
 20
5675378.54311078
  0
LWPOLYLINE
  5
200AE
  8
Flurstuecke_Flaechen
100
AcDbEntity
100
AcDbPolyline
 70
0
 90
12
 62
7
370
0
 10
323434.778805226
 20
5675357.65736202
 10
323434.778805226
 20
5675357.56738033
 10
323434.572659119
 20
5675350.62879266
 10
323430.796062431
 20
5675350.7587662
 10
323419.458026524
 20
5675351.1586848
 10
323419.68066432
 20
5675358.40720939
 10
323425.510476237
 20
5675358.15726026
 10
323427.670887443
 20
5675358.06727858
 10
323427.712116664
 20
5675359.087071
 10
323434.300546257
 20
5675358.80712798
 10
323434.820034448
 20
5675358.78713205
 10
323434.778805226
 20
5675357.65736202
  0
LWPOLYLINE
  5
200AF
  8
Flurstuecke_Flaechen
100
AcDbEntity
100
AcDbPolyline
 70
0
 90
21
 62
7
370
0
 10
323458.254723937
 20
5675335.39189409
 10
323460.613035406
 20
5675347.38945202
 10
323462.567300504
 20
5675357.20745359
 10
323463.424868311
 20
5675361.71653578
 10
323469.510301401
 20
5675359.92690006
 10
323472.511788725
 20
5675359.30702623
 10
323471.514041565
 20
5675354.24805597
 10
323470.334885831
 20
5675348.30926479
 10
323468.81765048
 20
5675340.61083179
 10
323468.660979439
 20
5675340.05094575
 10
323468.438341643
 20
5675339.51105564
 10
323468.157982937
 20
5675339.00115943
 10
323467.81990332
 20
5675338.53125508
 10
323467.432348638
 20
5675338.09134462
 10
323466.995318891
 20
5675337.71142195
 10
323466.517059922
 20
5675337.37149115
 10
323466.005817575
 20
5675337.09154813
 10
323465.469837696
 20
5675336.8715929
 10
323464.909120284
 20
5675336.71162546
 10
323460.514085274
 20
5675335.83180454
 10
323458.254723937
 20
5675335.39189409
  0
LWPOLYLINE
  5
200B0
  8
Flurstuecke_Flaechen
100
AcDbEntity
100
AcDbPolyline
 70
0
 90
19
 62
7
370
0
 10
323363.163647515
 20
5675343.30028436
 10
323363.353301934
 20
5675343.22030064
 10
323361.926770871
 20
5675339.53105157
 10
323361.646412165
 20
5675338.80120013
 10
323360.706385915
 20
5675336.36169669
 10
323360.343568766
 20
5675335.48187577
 10
323354.134448011
 20
5675337.97136904
 10
323354.686919579
 20
5675339.42107396
 10
323355.684666738
 20
5675342.02054484
 10
323356.929789227
 20
5675345.26988345
 10
323359.090200433
 20
5675350.90873568
 10
323359.997243305
 20
5675353.28825133
 10
323360.52497734
 20
5675354.65797253
 10
323361.720624763
 20
5675354.41802137
 10
323366.074430551
 20
5675353.54819842
 10
323367.311307196
 20
5675353.2982493
 10
323365.530204828
 20
5675349.00912234
 10
323365.32405872
 20
5675348.48922816
 10
323363.163647515
 20
5675343.30028436
  0
LWPOLYLINE
  5
200B1
  8
Flurstuecke_Flaechen
100
AcDbEntity
100
AcDbPolyline
 70
0
 90
10
 62
7
370
0
 10
323361.720624763
 20
5675354.41802137
 10
323362.009229314
 20
5675355.55778938
 10
323362.602930103
 20
5675357.89731317
 10
323362.850305432
 20
5675358.8871117
 10
323364.285082339
 20
5675364.5359619
 10
323364.491228447
 20
5675365.34579706
 10
323368.688363193
 20
5675364.14604126
 10
323366.363035102
 20
5675354.71796032
 10
323366.074430551
 20
5675353.54819842
 10
323361.720624763
 20
5675354.41802137
  0
LWPOLYLINE
  5
200B2
  8
Flurstuecke_Flaechen
100
AcDbEntity
100
AcDbPolyline
 70
0
 90
9
 62
7
370
0
 10
323451.748752787
 20
5675334.09215864
 10
323454.626552447
 20
5675348.56921188
 10
323456.547834168
 20
5675358.38721346
 10
323457.553827172
 20
5675363.44618372
 10
323463.424868311
 20
5675361.71653578
 10
323462.567300504
 20
5675357.20745359
 10
323460.613035406
 20
5675347.38945202
 10
323458.254723937
 20
5675335.39189409
 10
323451.748752787
 20
5675334.09215864
  0
LWPOLYLINE
  5
200B3
  8
Flurstuecke_Flaechen
100
AcDbEntity
100
AcDbPolyline
 70
0
 90
15
 62
7
370
0
 10
323343.802405108
 20
5675317.52553073
 10
323348.22217765
 20
5675340.34088673
 10
323354.134448011
 20
5675337.97136904
 10
323360.343568766
 20
5675335.48187577
 10
323360.706385915
 20
5675336.36169669
 10
323365.390025475
 20
5675334.49207724
 10
323368.531692152
 20
5675333.24233162
 10
323370.865266087
 20
5675332.31252088
 10
323373.297790155
 20
5675331.34271828
 10
323374.806779661
 20
5675330.74284039
 10
323383.679308124
 20
5675327.01359946
 10
323384.281254757
 20
5675326.75365238
 10
323383.225786687
 20
5675323.56430156
 10
323382.450677323
 20
5675313.42636511
 10
323343.802405108
 20
5675317.52553073
  0
LWPOLYLINE
  5
200B4
  8
Flurstuecke_Flaechen
100
AcDbEntity
100
AcDbPolyline
 70
0
 90
9
 62
7
370
0
 10
323302.960738309
 20
5675457.58702162
 10
323315.032654359
 20
5675463.37584332
 10
323322.92392735
 20
5675467.16507204
 10
323330.015353445
 20
5675470.56438012
 10
323332.472615045
 20
5675465.45542003
 10
323327.49212509
 20
5675463.06590641
 10
323317.498161803
 20
5675458.26688324
 10
323305.442737443
 20
5675452.47806154
 10
323302.960738309
 20
5675457.58702162
  0
LWPOLYLINE
  5
200B5
  8
Flurstuecke_Flaechen
100
AcDbEntity
100
AcDbPolyline
 70
0
 90
19
 62
7
370
0
 10
323403.650743009
 20
5675318.66529874
 10
323396.922134063
 20
5675321.62469636
 10
323384.281254757
 20
5675326.75365238
 10
323383.679308124
 20
5675327.01359946
 10
323374.806779661
 20
5675330.74284039
 10
323373.297790155
 20
5675331.34271828
 10
323370.865266087
 20
5675332.31252088
 10
323368.531692152
 20
5675333.24233162
 10
323365.390025475
 20
5675334.49207724
 10
323360.706385915
 20
5675336.36169669
 10
323361.646412165
 20
5675338.80120013
 10
323361.926770871
 20
5675339.53105157
 10
323363.353301934
 20
5675343.22030064
 10
323370.708595046
 20
5675340.18091929
 10
323373.660607304
 20
5675338.96116757
 10
323375.697330845
 20
5675338.47126729
 10
323403.988822625
 20
5675331.70264502
 10
323403.675480541
 20
5675319.58511151
 10
323403.650743009
 20
5675318.66529874
  0
LWPOLYLINE
  5
200B6
  8
Flurstuecke_Flaechen
100
AcDbEntity
100
AcDbPolyline
 70
0
 90
11
 62
7
370
0
 10
323381.551880295
 20
5675391.06056289
 10
323378.525655438
 20
5675387.10136877
 10
323375.738560066
 20
5675388.24113678
 10
323374.188341339
 20
5675388.87100857
 10
323373.248315089
 20
5675389.2609292
 10
323374.93871317
 20
5675393.05015791
 10
323358.636678996
 20
5675403.51802721
 10
323367.583420058
 20
5675417.72513539
 10
323388.940156784
 20
5675400.73859296
 10
323381.898205756
 20
5675391.51047131
 10
323381.551880295
 20
5675391.06056289
  0
LWPOLYLINE
  5
200B7
  8
Flurstuecke_Flaechen
100
AcDbEntity
100
AcDbPolyline
 70
0
 90
5
 62
7
370
0
 10
323338.953848662
 20
5675397.90916888
 10
323370.568415693
 20
5675383.22215837
 10
323367.880270452
 20
5675377.19338551
 10
323335.028826777
 20
5675390.37070331
 10
323338.953848662
 20
5675397.90916888
  0
LWPOLYLINE
  5
200B8
  8
Flurstuecke_Flaechen
100
AcDbEntity
100
AcDbPolyline
 70
0
 90
10
 62
7
370
0
 10
323367.583420058
 20
5675417.72513539
 10
323358.636678996
 20
5675403.51802721
 10
323346.070012289
 20
5675411.58638492
 10
323338.953848662
 20
5675397.90916888
 10
323335.028826777
 20
5675390.37070331
 10
323324.548358677
 20
5675412.12627503
 10
323356.6082013
 20
5675427.55313493
 10
323358.026486519
 20
5675425.98345444
 10
323365.521958984
 20
5675419.37479961
 10
323367.583420058
 20
5675417.72513539
  0
LWPOLYLINE
  5
200B9
  8
Flurstuecke_Flaechen
100
AcDbEntity
100
AcDbPolyline
 70
0
 90
5
 62
7
370
0
 10
323320.392453151
 20
5675421.7743112
 10
323314.983179293
 20
5675419.17484031
 10
323313.235060302
 20
5675422.77410769
 10
323318.636088316
 20
5675425.37357858
 10
323320.392453151
 20
5675421.7743112
  0
LWPOLYLINE
  5
200BA
  8
Flurstuecke_Flaechen
100
AcDbEntity
100
AcDbPolyline
 70
0
 90
17
 62
7
370
0
 10
323374.93871317
 20
5675393.05015791
 10
323373.248315089
 20
5675389.2609292
 10
323374.188341339
 20
5675388.87100857
 10
323375.738560066
 20
5675388.24113678
 10
323378.525655438
 20
5675387.10136877
 10
323381.551880295
 20
5675391.06056289
 10
323381.898205756
 20
5675391.51047131
 10
323388.940156784
 20
5675400.73859296
 10
323392.3869197
 20
5675397.97915463
 10
323393.632042189
 20
5675396.99935407
 10
323387.348708835
 20
5675383.63207494
 10
323384.800742948
 20
5675376.60350558
 10
323370.568415693
 20
5675383.22215837
 10
323338.953848662
 20
5675397.90916888
 10
323346.070012289
 20
5675411.58638492
 10
323358.636678996
 20
5675403.51802721
 10
323374.93871317
 20
5675393.05015791
  0
LWPOLYLINE
  5
200BB
  8
Flurstuecke_Flaechen
100
AcDbEntity
100
AcDbPolyline
 70
0
 90
7
 62
7
370
0
 10
323320.392453151
 20
5675421.7743112
 10
323318.636088316
 20
5675425.37357858
 10
323312.055904568
 20
5675438.88082921
 10
323339.118765548
 20
5675451.89817957
 10
323343.052033277
 20
5675444.7896265
 10
323349.417825073
 20
5675435.74146822
 10
323320.392453151
 20
5675421.7743112
  0
LWPOLYLINE
  5
200BC
  8
Flurstuecke_Flaechen
100
AcDbEntity
100
AcDbPolyline
 70
0
 90
14
 62
7
370
0
 10
323404.293918864
 20
5675343.28028843
 10
323403.988822625
 20
5675331.70264502
 10
323375.697330845
 20
5675338.47126729
 10
323373.660607304
 20
5675338.96116757
 10
323370.708595046
 20
5675340.18091929
 10
323363.353301934
 20
5675343.22030064
 10
323363.163647515
 20
5675343.30028436
 10
323365.32405872
 20
5675348.48922816
 10
323365.530204828
 20
5675349.00912234
 10
323367.311307196
 20
5675353.2982493
 10
323369.413997491
 20
5675352.88833274
 10
323370.83228271
 20
5675352.54840193
 10
323380.14184092
 20
5675350.33885168
 10
323404.293918864
 20
5675343.28028843
  0
LWPOLYLINE
  5
200BD
  8
Flurstuecke_Flaechen
100
AcDbEntity
100
AcDbPolyline
 70
0
 90
5
 62
7
370
0
 10
323349.953804953
 20
5675356.45760622
 10
323324.127820617
 20
5675351.61859119
 10
323334.047571306
 20
5675373.05422803
 10
323351.949299272
 20
5675366.68552436
 10
323349.953804953
 20
5675356.45760622
  0
LWPOLYLINE
  5
200BE
  8
Flurstuecke_Flaechen
100
AcDbEntity
100
AcDbPolyline
 70
0
 90
10
 62
7
370
0
 10
323355.659929206
 20
5675365.53575839
 10
323351.949299272
 20
5675366.68552436
 10
323334.047571306
 20
5675373.05422803
 10
323327.26124145
 20
5675375.46373758
 10
323331.145034113
 20
5675382.91222146
 10
323364.788078841
 20
5675370.25479784
 10
323362.825567899
 20
5675365.83569734
 10
323361.844312428
 20
5675363.62614709
 10
323359.477755115
 20
5675364.35599853
 10
323355.659929206
 20
5675365.53575839
  0
LWPOLYLINE
  5
200BF
  8
Flurstuecke_Flaechen
100
AcDbEntity
100
AcDbPolyline
 70
0
 90
9
 62
7
370
0
 10
323359.090200433
 20
5675350.90873568
 10
323356.929789227
 20
5675345.26988345
 10
323348.321127782
 20
5675348.55921392
 10
323349.607479492
 20
5675354.67796846
 10
323352.922308899
 20
5675355.06788909
 10
323356.360825971
 20
5675355.47780566
 10
323360.52497734
 20
5675354.65797253
 10
323359.997243305
 20
5675353.28825133
 10
323359.090200433
 20
5675350.90873568
  0
LWPOLYLINE
  5
200C0
  8
Flurstuecke_Flaechen
100
AcDbEntity
100
AcDbPolyline
 70
0
 90
24
 62
7
370
0
 10
323390.548096422
 20
5675362.3664035
 10
323389.838953813
 20
5675359.41700384
 10
323389.781232903
 20
5675359.17705269
 10
323386.548861939
 20
5675360.12685936
 10
323385.773752575
 20
5675360.35681255
 10
323385.410935426
 20
5675360.4567922
 10
323385.155314253
 20
5675359.58696925
 10
323384.404942422
 20
5675359.80692448
 10
323382.84647785
 20
5675360.26683087
 10
323382.764019407
 20
5675359.98688785
 10
323378.476180373
 20
5675361.27662532
 10
323374.683091997
 20
5675362.41639333
 10
323374.147112117
 20
5675362.57636077
 10
323368.688363193
 20
5675364.14604126
 10
323364.491228447
 20
5675365.34579706
 10
323362.825567899
 20
5675365.83569734
 10
323364.788078841
 20
5675370.25479784
 10
323367.880270452
 20
5675377.19338551
 10
323370.568415693
 20
5675383.22215837
 10
323384.800742948
 20
5675376.60350558
 10
323383.1350824
 20
5675372.01443967
 10
323392.411657233
 20
5675369.97485483
 10
323392.27147788
 20
5675369.38497489
 10
323390.548096422
 20
5675362.3664035
  0
LWPOLYLINE
  5
200C1
  8
Flurstuecke_Flaechen
100
AcDbEntity
100
AcDbPolyline
 70
0
 90
11
 62
7
370
0
 10
323349.607479492
 20
5675354.67796846
 10
323348.321127782
 20
5675348.55921392
 10
323346.729679833
 20
5675340.94076463
 10
323348.22217765
 20
5675340.34088673
 10
323343.802405108
 20
5675317.52553073
 10
323295.481757533
 20
5675322.61449489
 10
323296.182654298
 20
5675330.91280579
 10
323298.186394462
 20
5675354.88792573
 10
323324.127820617
 20
5675351.61859119
 10
323349.953804953
 20
5675356.45760622
 10
323349.607479492
 20
5675354.67796846
  0
LWPOLYLINE
  5
200C2
  8
Flurstuecke_Flaechen
100
AcDbEntity
100
AcDbPolyline
 70
0
 90
5
 62
7
370
0
 10
323331.145034113
 20
5675382.91222146
 10
323335.028826777
 20
5675390.37070331
 10
323367.880270452
 20
5675377.19338551
 10
323364.788078841
 20
5675370.25479784
 10
323331.145034113
 20
5675382.91222146
  0
LWPOLYLINE
  5
200C3
  8
Flurstuecke_Flaechen
100
AcDbEntity
100
AcDbPolyline
 70
0
 90
10
 62
7
370
0
 10
323352.922308899
 20
5675355.06788909
 10
323349.607479492
 20
5675354.67796846
 10
323349.953804953
 20
5675356.45760622
 10
323351.949299272
 20
5675366.68552436
 10
323355.659929206
 20
5675365.53575839
 10
323355.585716607
 20
5675365.24581741
 10
323354.84359062
 20
5675362.31641368
 10
323354.620952824
 20
5675361.46658666
 10
323353.590222287
 20
5675357.58737626
 10
323352.922308899
 20
5675355.06788909
  0
LWPOLYLINE
  5
200C4
  8
Flurstuecke_Flaechen
100
AcDbEntity
100
AcDbPolyline
 70
0
 90
7
 62
7
370
0
 10
323404.961832252
 20
5675368.94506444
 10
323404.780423677
 20
5675361.94648898
 10
323400.096784117
 20
5675362.11645438
 10
323390.548096422
 20
5675362.3664035
 10
323392.27147788
 20
5675369.38497489
 10
323400.814172571
 20
5675369.11502984
 10
323404.961832252
 20
5675368.94506444
  0
LWPOLYLINE
  5
200C5
  8
Flurstuecke_Flaechen
100
AcDbEntity
100
AcDbPolyline
 70
0
 90
20
 62
7
370
0
 10
323403.63425132
 20
5675389.12095769
 10
323429.58392332
 20
5675372.62431553
 10
323424.718875185
 20
5675372.74429111
 10
323419.961023026
 20
5675372.86426669
 10
323420.068219002
 20
5675371.31458213
 10
323419.903302116
 20
5675365.79570548
 10
323419.68066432
 20
5675358.40720939
 10
323419.458026524
 20
5675351.1586848
 10
323419.210651195
 20
5675342.32048379
 10
323418.996259244
 20
5675334.64204672
 10
323418.666425472
 20
5675322.89443791
 10
323416.291622314
 20
5675321.36474927
 10
323403.650743009
 20
5675318.66529874
 10
323403.675480541
 20
5675319.58511151
 10
323403.988822625
 20
5675331.70264502
 10
323404.293918864
 20
5675343.28028843
 10
323404.780423677
 20
5675361.94648898
 10
323404.961832252
 20
5675368.94506444
 10
323405.390616155
 20
5675385.43170863
 10
323403.63425132
 20
5675389.12095769
  0
LWPOLYLINE
  5
200C6
  8
Flurstuecke_Flaechen
100
AcDbEntity
100
AcDbPolyline
 70
0
 90
10
 62
7
370
0
 10
323371.59914623
 20
5675354.87792776
 10
323370.83228271
 20
5675352.54840193
 10
323369.413997491
 20
5675352.88833274
 10
323367.311307196
 20
5675353.2982493
 10
323366.074430551
 20
5675353.54819842
 10
323366.363035102
 20
5675354.71796032
 10
323368.688363193
 20
5675364.14604126
 10
323374.147112117
 20
5675362.57636077
 10
323372.069159355
 20
5675356.27764285
 10
323371.59914623
 20
5675354.87792776
  0
LWPOLYLINE
  5
200C7
  8
Flurstuecke_Flaechen
100
AcDbEntity
100
AcDbPolyline
 70
0
 90
21
 62
7
370
0
 10
323378.476180373
 20
5675361.27662532
 10
323382.764019407
 20
5675359.98688785
 10
323382.84647785
 20
5675360.26683087
 10
323384.404942422
 20
5675359.80692448
 10
323385.155314253
 20
5675359.58696925
 10
323385.410935426
 20
5675360.4567922
 10
323385.773752575
 20
5675360.35681255
 10
323386.548861939
 20
5675360.12685936
 10
323389.781232903
 20
5675359.17705269
 10
323389.838953813
 20
5675359.41700384
 10
323390.548096422
 20
5675362.3664035
 10
323400.096784117
 20
5675362.11645438
 10
323404.780423677
 20
5675361.94648898
 10
323404.293918864
 20
5675343.28028843
 10
323380.14184092
 20
5675350.33885168
 10
323370.83228271
 20
5675352.54840193
 10
323371.59914623
 20
5675354.87792776
 10
323372.069159355
 20
5675356.27764285
 10
323374.147112117
 20
5675362.57636077
 10
323374.683091997
 20
5675362.41639333
 10
323378.476180373
 20
5675361.27662532
  0
LWPOLYLINE
  5
200C8
  8
Flurstuecke_Flaechen
100
AcDbEntity
100
AcDbPolyline
 70
0
 90
6
 62
7
370
0
 10
323497.3400259
 20
5675428.77288666
 10
323497.941972534
 20
5675431.68229445
 10
323503.417213146
 20
5675430.55252442
 10
323503.417213146
 20
5675428.71289887
 10
323503.186329506
 20
5675427.57313086
 10
323497.3400259
 20
5675428.77288666
  0
LWPOLYLINE
  5
200C9
  8
Flurstuecke_Flaechen
100
AcDbEntity
100
AcDbPolyline
 70
0
 90
21
 62
7
370
0
 10
323503.417213146
 20
5675414.57577644
 10
323503.417213146
 20
5675412.66616513
 10
323500.654855307
 20
5675413.2160532
 10
323492.582173741
 20
5675413.70595349
 10
323484.509492176
 20
5675414.19585377
 10
323473.559010951
 20
5675414.86571742
 10
323484.17141256
 20
5675420.46457779
 10
323483.841578788
 20
5675420.01466937
 10
323483.610695147
 20
5675419.50477315
 10
323483.470515794
 20
5675418.95488508
 10
323483.437532417
 20
5675418.39499904
 10
323483.511745016
 20
5675417.83511301
 10
323483.69315359
 20
5675417.30522087
 10
323483.965266452
 20
5675416.80532262
 10
323484.336329445
 20
5675416.36541216
 10
323484.781605037
 20
5675416.00548542
 10
323485.284601539
 20
5675415.73554037
 10
323485.828827263
 20
5675415.56557497
 10
323486.397790519
 20
5675415.50558718
 10
323501.034164145
 20
5675415.06567672
 10
323503.417213146
 20
5675414.57577644
  0
LWPOLYLINE
  5
200CA
  8
Flurstuecke_Flaechen
100
AcDbEntity
100
AcDbPolyline
 70
0
 90
15
 62
7
370
0
 10
323503.417213146
 20
5675453.37787838
 10
323503.417213146
 20
5675446.06936601
 10
323503.120362752
 20
5675446.25932734
 10
323502.807020669
 20
5675446.54926832
 10
323502.543153651
 20
5675446.88919913
 10
323502.328761699
 20
5675447.25912384
 10
323502.155598969
 20
5675447.53906685
 10
323502.02366546
 20
5675447.84900377
 10
323501.924715329
 20
5675448.16893865
 10
323501.866994419
 20
5675448.48887352
 10
323501.85050273
 20
5675448.81880637
 10
323501.866994419
 20
5675449.14873921
 10
323501.932961173
 20
5675449.47867205
 10
323502.040157149
 20
5675449.78860897
 10
323503.417213146
 20
5675453.37787838
  0
LWPOLYLINE
  5
200CB
  8
Flurstuecke_Flaechen
100
AcDbEntity
100
AcDbPolyline
 70
0
 90
5
 62
7
370
0
 10
323446.891950497
 20
5675487.25098361
 10
323449.901683665
 20
5675487.25098361
 10
323450.915922514
 20
5675468.27484615
 10
323448.310235716
 20
5675461.0163236
 10
323446.891950497
 20
5675487.25098361
  0
LWPOLYLINE
  5
200CC
  8
Flurstuecke_Flaechen
100
AcDbEntity
100
AcDbPolyline
 70
0
 90
6
 62
7
370
0
 10
323497.744072271
 20
5675487.25098361
 10
323503.417213146
 20
5675487.25098361
 10
323503.417213146
 20
5675482.42196654
 10
323501.61961909
 20
5675482.98185258
 10
323497.265813302
 20
5675484.84147406
 10
323497.744072271
 20
5675487.25098361
  0
LWPOLYLINE
  5
200CD
  8
Flurstuecke_Flaechen
100
AcDbEntity
100
AcDbPolyline
 70
0
 90
30
 62
7
370
0
 10
323269.309447737
 20
5675400.07872727
 10
323269.309447737
 20
5675440.35053006
 10
323270.035082035
 20
5675439.04079665
 10
323272.179001552
 20
5675434.64169208
 10
323270.018590347
 20
5675433.60190372
 10
323279.319902713
 20
5675414.43580493
 10
323281.488559763
 20
5675415.47559328
 10
323283.7479211
 20
5675410.82653958
 10
323283.929329674
 20
5675410.37663116
 10
323284.077754872
 20
5675409.92672274
 10
323284.193196692
 20
5675409.45681839
 10
323284.26740929
 20
5675408.98691403
 10
323284.300392668
 20
5675408.50701172
 10
323284.300392668
 20
5675408.0271094
 10
323284.259163446
 20
5675407.54720708
 10
323284.184950847
 20
5675407.07730273
 10
323284.069509027
 20
5675406.61739634
 10
323283.912837986
 20
5675406.15748995
 10
323283.731429411
 20
5675405.7175795
 10
323283.508791615
 20
5675405.29766497
 10
323283.253170442
 20
5675404.88774841
 10
323282.964565892
 20
5675404.50782574
 10
323282.642977964
 20
5675404.147899
 10
323282.304898348
 20
5675403.80796819
 10
323281.933835355
 20
5675403.50802924
 10
323281.538034828
 20
5675403.23808419
 10
323281.125742614
 20
5675402.98813507
 10
323280.688712866
 20
5675402.78817577
 10
323279.608507263
 20
5675405.03771788
 10
323269.309447737
 20
5675400.07872727
  0
LWPOLYLINE
  5
200CE
  8
Flurstuecke_Flaechen
100
AcDbEntity
100
AcDbPolyline
 70
0
 90
5
 62
7
370
0
 10
323472.487051192
 20
5675306.01787308
 10
323468.87537139
 20
5675306.01787308
 10
323473.32812731
 20
5675308.35739688
 10
323474.070253297
 20
5675306.75772249
 10
323472.487051192
 20
5675306.01787308
  0
LWPOLYLINE
  5
200CF
  8
Flurstuecke_Flaechen
100
AcDbEntity
100
AcDbPolyline
 70
0
 90
5
 62
7
370
0
 10
323490.652646176
 20
5675306.01787308
 10
323489.382786155
 20
5675306.01787308
 10
323489.43226122
 20
5675306.25782424
 10
323489.745603304
 20
5675306.19783645
 10
323490.652646176
 20
5675306.01787308
  0
LWPOLYLINE
  5
200D0
  8
Flurstuecke_Flaechen
100
AcDbEntity
100
AcDbPolyline
 70
0
 90
8
 62
7
370
0
 10
323334.064062994
 20
5675487.25098361
 10
323366.115659773
 20
5675487.25098361
 10
323372.159863642
 20
5675429.24279101
 10
323372.250567929
 20
5675428.36297009
 10
323362.165900355
 20
5675440.03059518
 10
323355.008507506
 20
5675448.84880026
 10
323347.611985173
 20
5675459.38665531
 10
323334.064062994
 20
5675487.25098361
  0
LWPOLYLINE
  5
200D1
  8
Flurstuecke_Flaechen
100
AcDbEntity
100
AcDbPolyline
 70
0
 90
5
 62
7
370
0
 10
323286.196936856
 20
5675306.01787308
 10
323280.40835416
 20
5675306.01787308
 10
323280.672221177
 20
5675309.18722797
 10
323286.056757503
 20
5675308.61734397
 10
323286.196936856
 20
5675306.01787308
  0
LWPOLYLINE
  5
200D2
  8
Flurstuecke_Flaechen
100
AcDbEntity
100
AcDbPolyline
 70
0
 90
8
 62
7
370
0
 10
323269.309447737
 20
5675325.37393321
 10
323269.309447737
 20
5675361.36660701
 10
323282.205948216
 20
5675361.20663957
 10
323281.026792482
 20
5675357.04748615
 10
323298.186394462
 20
5675354.88792573
 10
323296.182654298
 20
5675330.91280579
 10
323295.481757533
 20
5675322.61449489
 10
323269.309447737
 20
5675325.37393321
  0
LWPOLYLINE
  5
200D3
  8
Flurstuecke_Flaechen
100
AcDbEntity
100
AcDbPolyline
 70
0
 90
5
 62
7
370
0
 10
323269.309447737
 20
5675471.4242051
 10
323269.309447737
 20
5675487.25098361
 10
323283.615987591
 20
5675487.25098361
 10
323280.622746111
 20
5675471.27423563
 10
323269.309447737
 20
5675471.4242051
  0
LWPOLYLINE
  5
200D4
  8
Flurstuecke_Flaechen
100
AcDbEntity
100
AcDbPolyline
 70
0
 90
5
 62
7
370
0
 10
323474.424824602
 20
5675306.01787308
 10
323472.487051192
 20
5675306.01787308
 10
323474.070253297
 20
5675306.75772249
 10
323474.202186806
 20
5675306.48777744
 10
323474.424824602
 20
5675306.01787308
  0
LWPOLYLINE
  5
200D5
  8
Flurstuecke_Flaechen
100
AcDbEntity
100
AcDbPolyline
 70
0
 90
7
 62
7
370
0
 10
323283.615987591
 20
5675487.25098361
 10
323321.942671879
 20
5675487.25098361
 10
323324.80397985
 20
5675481.3221904
 10
323303.282326237
 20
5675470.97429668
 10
323296.39704625
 20
5675471.06427837
 10
323280.622746111
 20
5675471.27423563
 10
323283.615987591
 20
5675487.25098361
  0
LWPOLYLINE
  5
200D6
  8
Flurstuecke_Flaechen
100
AcDbEntity
100
AcDbPolyline
 70
0
 90
11
 62
7
370
0
 10
323366.115659773
 20
5675487.25098361
 10
323373.520427951
 20
5675487.25098361
 10
323375.672593312
 20
5675468.59478102
 10
323375.705576689
 20
5675467.82493772
 10
323377.692825165
 20
5675448.33890405
 10
323379.688319484
 20
5675427.66311255
 10
323380.380970405
 20
5675420.49457168
 10
323374.279045626
 20
5675426.0234463
 10
323372.250567929
 20
5675428.36297009
 10
323372.159863642
 20
5675429.24279101
 10
323366.115659773
 20
5675487.25098361
  0
LWPOLYLINE
  5
200D7
  8
Flurstuecke_Flaechen
100
AcDbEntity
100
AcDbPolyline
 70
0
 90
4
 62
7
370
0
 10
323310.480948307
 20
5675306.01787308
 10
323290.204417184
 20
5675306.01787308
 10
323290.130204585
 20
5675308.17743351
 10
323310.480948307
 20
5675306.01787308
  0
LWPOLYLINE
  5
200D8
  8
Flurstuecke_Flaechen
100
AcDbEntity
100
AcDbPolyline
 70
0
 90
103
 62
7
370
0
 10
323492.615157119
 20
5675487.25098361
 10
323492.631648807
 20
5675487.25098361
 10
323497.265813302
 20
5675484.84147406
 10
323501.61961909
 20
5675482.98185258
 10
323503.417213146
 20
5675482.42196654
 10
323503.417213146
 20
5675453.37787838
 10
323502.040157149
 20
5675449.78860897
 10
323498.156364486
 20
5675441.2503469
 10
323497.430730188
 20
5675439.69066437
 10
323493.415004015
 20
5675432.61210519
 10
323493.109907776
 20
5675432.08221305
 10
323488.038713534
 20
5675425.0236498
 10
323485.408289204
 20
5675421.92428067
 10
323484.17141256
 20
5675420.46457779
 10
323473.559010951
 20
5675414.86571742
 10
323473.03952276
 20
5675414.88571335
 10
323472.520034569
 20
5675414.80572963
 10
323472.017038067
 20
5675414.63576423
 10
323471.563516631
 20
5675414.3858151
 10
323471.151224416
 20
5675414.05588226
 10
323470.804898956
 20
5675413.65596366
 10
323469.081517498
 20
5675411.36642969
 10
323465.230708211
 20
5675404.99772602
 10
323462.880642587
 20
5675400.6986011
 10
323459.813188509
 20
5675393.79000732
 10
323457.694006525
 20
5675388.36111236
 10
323457.504352106
 20
5675387.67125277
 10
323457.413647819
 20
5675386.96139726
 10
323457.430139507
 20
5675386.24154379
 10
323457.545581328
 20
5675385.53168828
 10
323457.759973279
 20
5675384.85182666
 10
323458.065069518
 20
5675384.20195894
 10
323458.493853422
 20
5675383.61207901
 10
323458.996849924
 20
5675383.08218687
 10
323459.56581318
 20
5675382.62228048
 10
323460.192497347
 20
5675382.25235577
 10
323460.860410735
 20
5675381.95241683
 10
323461.5613075
 20
5675381.75245753
 10
323444.57486825
 20
5675385.16176357
 10
323445.160323195
 20
5675385.43170863
 10
323445.721040607
 20
5675385.74164554
 10
323446.257020486
 20
5675386.10157228
 10
323446.842475431
 20
5675386.61146849
 10
323447.378455311
 20
5675387.18135249
 10
323447.85671428
 20
5675387.79122835
 10
323448.269006494
 20
5675388.44109607
 10
323448.615331955
 20
5675389.14095362
 10
323448.895690661
 20
5675389.8608071
 10
323451.633310967
 20
5675397.43926452
 10
323455.137794793
 20
5675404.717783
 10
323457.644531459
 20
5675409.566796
 10
323460.316185011
 20
5675413.8159311
 10
323461.998337247
 20
5675416.50538367
 10
323466.665485119
 20
5675422.92407716
 10
323471.942825468
 20
5675429.57272385
 10
323474.029024075
 20
5675432.20218863
 10
323479.380577023
 20
5675431.02242877
 10
323479.933048591
 20
5675430.95244301
 10
323480.485520159
 20
5675430.96244098
 10
323481.029745883
 20
5675431.05242266
 10
323481.557479918
 20
5675431.2123901
 10
323482.076968108
 20
5675431.45234126
 10
323482.563472922
 20
5675431.77227614
 10
323482.992256825
 20
5675432.15219881
 10
323483.363319818
 20
5675432.59210926
 10
323485.136176342
 20
5675435.05160864
 10
323486.100940125
 20
5675436.38133798
 10
323490.108420453
 20
5675443.31992565
 10
323494.429242864
 20
5675452.93796792
 10
323496.202099387
 20
5675457.92695243
 10
323496.399999651
 20
5675458.52683033
 10
323496.507195626
 20
5675459.13670619
 10
323496.515441471
 20
5675459.76657798
 10
323496.424737183
 20
5675460.38645181
 10
323496.243328609
 20
5675460.9863297
 10
323495.971215747
 20
5675461.53621777
 10
323495.616644442
 20
5675462.03611602
 10
323495.196106383
 20
5675462.47602648
 10
323494.70960157
 20
5675462.85594915
 10
323494.165375846
 20
5675463.14589013
 10
323493.456233237
 20
5675463.50581687
 10
323492.77182816
 20
5675463.9257314
 10
323492.128652305
 20
5675464.39563575
 10
323491.518459827
 20
5675464.90553196
 10
323491.403018007
 20
5675465.01550957
 10
323491.295822031
 20
5675465.12548719
 10
323491.180380211
 20
5675465.2354648
 10
323490.553696045
 20
5675465.93532235
 10
323489.984732788
 20
5675466.70516565
 10
323489.498227975
 20
5675467.51500081
 10
323489.08593576
 20
5675468.3748258
 10
323488.772593677
 20
5675469.19465892
 10
323488.533464192
 20
5675470.05448391
 10
323488.368547306
 20
5675470.92430686
 10
323488.277843019
 20
5675471.80412777
 10
323488.269597175
 20
5675472.71394258
 10
323488.343809773
 20
5675473.62375739
 10
323488.500480815
 20
5675474.52357424
 10
323488.7396103
 20
5675475.40339515
 10
323490.462991757
 20
5675480.61233489
 10
323490.743350463
 20
5675481.45216394
 10
323492.31006088
 20
5675486.18120136
 10
323492.615157119
 20
5675487.25098361
  0
LWPOLYLINE
  5
200D9
  8
Flurstuecke_Flaechen
100
AcDbEntity
100
AcDbPolyline
 70
0
 90
53
 62
7
370
0
 10
323269.309447737
 20
5675385.54168624
 10
323269.309447737
 20
5675400.07872727
 10
323279.608507263
 20
5675405.03771788
 10
323280.688712866
 20
5675402.78817577
 10
323281.125742614
 20
5675402.98813507
 10
323281.538034828
 20
5675403.23808419
 10
323281.933835355
 20
5675403.50802924
 10
323282.304898348
 20
5675403.80796819
 10
323282.642977964
 20
5675404.147899
 10
323282.964565892
 20
5675404.50782574
 10
323283.253170442
 20
5675404.88774841
 10
323283.508791615
 20
5675405.29766497
 10
323283.731429411
 20
5675405.7175795
 10
323283.912837986
 20
5675406.15748995
 10
323284.069509027
 20
5675406.61739634
 10
323284.184950847
 20
5675407.07730273
 10
323284.259163446
 20
5675407.54720708
 10
323284.300392668
 20
5675408.0271094
 10
323284.300392668
 20
5675408.50701172
 10
323284.26740929
 20
5675408.98691403
 10
323284.193196692
 20
5675409.45681839
 10
323284.077754872
 20
5675409.92672274
 10
323283.929329674
 20
5675410.37663116
 10
323283.7479211
 20
5675410.82653958
 10
323281.488559763
 20
5675415.47559328
 10
323279.319902713
 20
5675414.43580493
 10
323270.018590347
 20
5675433.60190372
 10
323272.179001552
 20
5675434.64169208
 10
323270.035082035
 20
5675439.04079665
 10
323269.309447737
 20
5675440.35053006
 10
323269.309447737
 20
5675451.43827318
 10
323287.738909739
 20
5675413.47600029
 10
323288.802623653
 20
5675411.73635439
 10
323290.146696273
 20
5675410.20666576
 10
323290.394071602
 20
5675409.98671053
 10
323290.666184464
 20
5675409.79674919
 10
323290.94654317
 20
5675409.61678582
 10
323291.243393565
 20
5675409.47681432
 10
323291.548489804
 20
5675409.34684077
 10
323291.870077731
 20
5675409.25685909
 10
323292.191665659
 20
5675409.17687537
 10
323292.521499431
 20
5675409.13688351
 10
323292.851333203
 20
5675409.11688758
 10
323293.181166974
 20
5675409.13688351
 10
323294.409797775
 20
5675409.38683263
 10
323295.580707665
 20
5675409.83674105
 10
323314.983179293
 20
5675419.17484031
 10
323320.392453151
 20
5675421.7743112
 10
323349.417825073
 20
5675435.74146822
 10
323349.995034174
 20
5675434.9216351
 10
323356.6082013
 20
5675427.55313493
 10
323324.548358677
 20
5675412.12627503
 10
323269.309447737
 20
5675385.54168624
  0
LWPOLYLINE
  5
200DA
  8
Flurstuecke_Flaechen
100
AcDbEntity
100
AcDbPolyline
 70
0
 90
11
 62
7
370
0
 10
323497.405992655
 20
5675396.72940901
 10
323497.645122139
 20
5675397.9591587
 10
323498.420231503
 20
5675401.87836096
 10
323499.096390735
 20
5675405.3176609
 10
323500.654855307
 20
5675413.2160532
 10
323503.417213146
 20
5675412.66616513
 10
323503.417213146
 20
5675385.86162112
 10
323501.058901678
 20
5675373.87406115
 10
323493.217103752
 20
5675375.43374368
 10
323496.870012775
 20
5675393.99996458
 10
323497.405992655
 20
5675396.72940901
  0
LWPOLYLINE
  5
200DB
  8
Flurstuecke_Flaechen
100
AcDbEntity
100
AcDbPolyline
 70
0
 90
5
 62
7
370
0
 10
323475.678192935
 20
5675306.01787308
 10
323474.424824602
 20
5675306.01787308
 10
323474.202186806
 20
5675306.48777744
 10
323474.070253297
 20
5675306.75772249
 10
323475.678192935
 20
5675306.01787308
  0
LWPOLYLINE
  5
200DC
  8
Flurstuecke_Flaechen
100
AcDbEntity
100
AcDbPolyline
 70
0
 90
9
 62
7
370
0
 10
323468.87537139
 20
5675306.01787308
 10
323418.880817423
 20
5675306.01787308
 10
323418.616950406
 20
5675308.07745386
 10
323418.583967029
 20
5675316.99563859
 10
323418.62519625
 20
5675319.51512576
 10
323434.984951334
 20
5675327.71345701
 10
323461.825174517
 20
5675333.03237436
 10
323473.32812731
 20
5675308.35739688
 10
323468.87537139
 20
5675306.01787308
  0
LWPOLYLINE
  5
200DD
  8
Flurstuecke_Flaechen
100
AcDbEntity
100
AcDbPolyline
 70
0
 90
24
 62
7
370
0
 10
323503.417213146
 20
5675446.06936601
 10
323503.417213146
 20
5675444.42969976
 10
323502.708070537
 20
5675444.43969772
 10
323501.998927928
 20
5675444.34971604
 10
323501.314522851
 20
5675444.16975267
 10
323500.654855307
 20
5675443.88980965
 10
323500.036416985
 20
5675443.49988902
 10
323499.459207884
 20
5675443.02998466
 10
323498.956211382
 20
5675442.49009456
 10
323498.519181635
 20
5675441.89021666
 10
323498.156364486
 20
5675441.2503469
 10
323502.040157149
 20
5675449.78860897
 10
323501.932961173
 20
5675449.47867205
 10
323501.866994419
 20
5675449.14873921
 10
323501.85050273
 20
5675448.81880637
 10
323501.866994419
 20
5675448.48887352
 10
323501.924715329
 20
5675448.16893865
 10
323502.02366546
 20
5675447.84900377
 10
323502.155598969
 20
5675447.53906685
 10
323502.328761699
 20
5675447.25912384
 10
323502.543153651
 20
5675446.88919913
 10
323502.807020669
 20
5675446.54926832
 10
323503.120362752
 20
5675446.25932734
 10
323503.417213146
 20
5675446.06936601
  0
LWPOLYLINE
  5
200DE
  8
Flurstuecke_Flaechen
100
AcDbEntity
100
AcDbPolyline
 70
0
 90
27
 62
7
370
0
 10
323269.309447737
 20
5675451.43827318
 10
323269.309447737
 20
5675471.4242051
 10
323280.622746111
 20
5675471.27423563
 10
323296.39704625
 20
5675471.06427837
 10
323302.960738309
 20
5675457.58702162
 10
323305.442737443
 20
5675452.47806154
 10
323307.924736576
 20
5675447.36910145
 10
323312.055904568
 20
5675438.88082921
 10
323318.636088316
 20
5675425.37357858
 10
323313.235060302
 20
5675422.77410769
 10
323314.983179293
 20
5675419.17484031
 10
323295.580707665
 20
5675409.83674105
 10
323294.409797775
 20
5675409.38683263
 10
323293.181166974
 20
5675409.13688351
 10
323292.851333203
 20
5675409.11688758
 10
323292.521499431
 20
5675409.13688351
 10
323292.191665659
 20
5675409.17687537
 10
323291.870077731
 20
5675409.25685909
 10
323291.548489804
 20
5675409.34684077
 10
323291.243393565
 20
5675409.47681432
 10
323290.94654317
 20
5675409.61678582
 10
323290.666184464
 20
5675409.79674919
 10
323290.394071602
 20
5675409.98671053
 10
323290.146696273
 20
5675410.20666576
 10
323288.802623653
 20
5675411.73635439
 10
323287.738909739
 20
5675413.47600029
 10
323269.309447737
 20
5675451.43827318
  0
LWPOLYLINE
  5
200DF
  8
Flurstuecke_Flaechen
100
AcDbEntity
100
AcDbPolyline
 70
0
 90
5
 62
7
370
0
 10
323280.40835416
 20
5675306.01787308
 10
323269.309447737
 20
5675306.01787308
 10
323269.309447737
 20
5675310.39698173
 10
323280.672221177
 20
5675309.18722797
 10
323280.40835416
 20
5675306.01787308
  0
LWPOLYLINE
  5
200E0
  8
Flurstuecke_Flaechen
100
AcDbEntity
100
AcDbPolyline
 70
0
 90
5
 62
7
370
0
 10
323290.204417184
 20
5675306.01787308
 10
323286.196936856
 20
5675306.01787308
 10
323286.056757503
 20
5675308.61734397
 10
323290.130204585
 20
5675308.17743351
 10
323290.204417184
 20
5675306.01787308
  0
LWPOLYLINE
  5
200E1
  8
Flurstuecke_Flaechen
100
AcDbEntity
100
AcDbPolyline
 70
0
 90
12
 62
7
370
0
 10
323373.520427951
 20
5675487.25098361
 10
323446.891950497
 20
5675487.25098361
 10
323448.310235716
 20
5675461.0163236
 10
323442.299015224
 20
5675444.26973232
 10
323430.688866455
 20
5675443.12996431
 10
323423.226377367
 20
5675442.40011287
 10
323399.329920597
 20
5675411.98630352
 10
323379.688319484
 20
5675427.66311255
 10
323377.692825165
 20
5675448.33890405
 10
323375.705576689
 20
5675467.82493772
 10
323375.672593312
 20
5675468.59478102
 10
323373.520427951
 20
5675487.25098361
  0
LWPOLYLINE
  5
200E2
  8
Flurstuecke_Flaechen
100
AcDbEntity
100
AcDbPolyline
 70
0
 90
4
 62
7
370
0
 10
323492.631648807
 20
5675487.25098361
 10
323497.744072271
 20
5675487.25098361
 10
323497.265813302
 20
5675484.84147406
 10
323492.631648807
 20
5675487.25098361
  0
LWPOLYLINE
  5
200E3
  8
Flurstuecke_Flaechen
100
AcDbEntity
100
AcDbPolyline
 70
0
 90
5
 62
7
370
0
 10
323488.91277303
 20
5675487.25098361
 10
323492.615157119
 20
5675487.25098361
 10
323492.31006088
 20
5675486.18120136
 10
323491.54319736
 20
5675486.44114845
 10
323488.91277303
 20
5675487.25098361
  0
LWPOLYLINE
  5
200E4
  8
Flurstuecke_Flaechen
100
AcDbEntity
100
AcDbPolyline
 70
0
 90
12
 62
7
370
0
 10
323269.309447737
 20
5675361.36660701
 10
323269.309447737
 20
5675385.54168624
 10
323324.548358677
 20
5675412.12627503
 10
323335.028826777
 20
5675390.37070331
 10
323331.145034113
 20
5675382.91222146
 10
323327.26124145
 20
5675375.46373758
 10
323334.047571306
 20
5675373.05422803
 10
323324.127820617
 20
5675351.61859119
 10
323298.186394462
 20
5675354.88792573
 10
323281.026792482
 20
5675357.04748615
 10
323282.205948216
 20
5675361.20663957
 10
323269.309447737
 20
5675361.36660701
  0
LWPOLYLINE
  5
200E5
  8
Flurstuecke_Flaechen
100
AcDbEntity
100
AcDbPolyline
 70
0
 90
4
 62
7
370
0
 10
323501.058901678
 20
5675373.87406115
 10
323503.417213146
 20
5675385.86162112
 10
323503.417213146
 20
5675373.4041568
 10
323501.058901678
 20
5675373.87406115
  0
LWPOLYLINE
  5
200E6
  8
Flurstuecke_Flaechen
100
AcDbEntity
100
AcDbPolyline
 70
0
 90
7
 62
7
370
0
 10
323483.717891123
 20
5675487.25098361
 10
323488.91277303
 20
5675487.25098361
 10
323491.54319736
 20
5675486.44114845
 10
323492.31006088
 20
5675486.18120136
 10
323490.743350463
 20
5675481.45216394
 10
323489.679636549
 20
5675482.34198282
 10
323483.717891123
 20
5675487.25098361
  0
LWPOLYLINE
  5
200E7
  8
Flurstuecke_Flaechen
100
AcDbEntity
100
AcDbPolyline
 70
0
 90
14
 62
7
370
0
 10
323503.417213146
 20
5675352.90832867
 10
323503.417213146
 20
5675306.01787308
 10
323490.652646176
 20
5675306.01787308
 10
323489.745603304
 20
5675306.19783645
 10
323489.43226122
 20
5675306.25782424
 10
323484.047724895
 20
5675307.32760649
 10
323484.204395937
 20
5675308.10744776
 10
323486.546215717
 20
5675319.59510948
 10
323482.134689018
 20
5675320.47493039
 10
323483.792103722
 20
5675328.9132128
 10
323484.542475553
 20
5675332.74243338
 10
323472.792147431
 20
5675335.07195921
 10
323477.393328548
 20
5675358.29723177
 10
323503.417213146
 20
5675352.90832867
  0
LWPOLYLINE
  5
200E8
  8
Flurstuecke_Flaechen
100
AcDbEntity
100
AcDbPolyline
 70
0
 90
14
 62
7
370
0
 10
323269.309447737
 20
5675310.39698173
 10
323269.309447737
 20
5675325.37393321
 10
323295.481757533
 20
5675322.61449489
 10
323343.802405108
 20
5675317.52553073
 10
323382.450677323
 20
5675313.42636511
 10
323396.509841848
 20
5675311.96666222
 10
323396.922134063
 20
5675321.62469636
 10
323403.650743009
 20
5675318.66529874
 10
323403.98057678
 20
5675306.01787308
 10
323310.480948307
 20
5675306.01787308
 10
323290.130204585
 20
5675308.17743351
 10
323286.056757503
 20
5675308.61734397
 10
323280.672221177
 20
5675309.18722797
 10
323269.309447737
 20
5675310.39698173
  0
LWPOLYLINE
  5
200E9
  8
Flurstuecke_Flaechen
100
AcDbEntity
100
AcDbPolyline
 70
0
 90
23
 62
7
370
0
 10
323483.437532417
 20
5675418.39499904
 10
323483.470515794
 20
5675418.95488508
 10
323483.610695147
 20
5675419.50477315
 10
323483.841578788
 20
5675420.01466937
 10
323484.17141256
 20
5675420.46457779
 10
323485.408289204
 20
5675421.92428067
 10
323495.501202622
 20
5675419.84470396
 10
323501.339260384
 20
5675418.64494817
 10
323501.96594455
 20
5675421.66433358
 10
323502.55964534
 20
5675424.55374545
 10
323503.186329506
 20
5675427.57313086
 10
323503.417213146
 20
5675428.71289887
 10
323503.417213146
 20
5675414.57577644
 10
323501.034164145
 20
5675415.06567672
 10
323486.397790519
 20
5675415.50558718
 10
323485.828827263
 20
5675415.56557497
 10
323485.284601539
 20
5675415.73554037
 10
323484.781605037
 20
5675416.00548542
 10
323484.336329445
 20
5675416.36541216
 10
323483.965266452
 20
5675416.80532262
 10
323483.69315359
 20
5675417.30522087
 10
323483.511745016
 20
5675417.83511301
 10
323483.437532417
 20
5675418.39499904
  0
LWPOLYLINE
  5
200EA
  8
Flurstuecke_Flaechen
100
AcDbEntity
100
AcDbPolyline
 70
0
 90
15
 62
7
370
0
 10
323503.417213146
 20
5675444.42969976
 10
323503.417213146
 20
5675430.55252442
 10
323497.941972534
 20
5675431.68229445
 10
323493.415004015
 20
5675432.61210519
 10
323497.430730188
 20
5675439.69066437
 10
323498.156364486
 20
5675441.2503469
 10
323498.519181635
 20
5675441.89021666
 10
323498.956211382
 20
5675442.49009456
 10
323499.459207884
 20
5675443.02998466
 10
323500.036416985
 20
5675443.49988902
 10
323500.654855307
 20
5675443.88980965
 10
323501.314522851
 20
5675444.16975267
 10
323501.998927928
 20
5675444.34971604
 10
323502.708070537
 20
5675444.43969772
 10
323503.417213146
 20
5675444.42969976
  0
LWPOLYLINE
  5
200EB
  8
Flurstuecke_Flaechen
100
AcDbEntity
100
AcDbPolyline
 70
0
 90
30
 62
7
370
0
 10
323484.047724895
 20
5675307.32760649
 10
323489.43226122
 20
5675306.25782424
 10
323489.382786155
 20
5675306.01787308
 10
323475.678192935
 20
5675306.01787308
 10
323474.070253297
 20
5675306.75772249
 10
323473.32812731
 20
5675308.35739688
 10
323461.825174517
 20
5675333.03237436
 10
323460.514085274
 20
5675335.83180454
 10
323464.909120284
 20
5675336.71162546
 10
323465.469837696
 20
5675336.8715929
 10
323466.005817575
 20
5675337.09154813
 10
323466.517059922
 20
5675337.37149115
 10
323466.995318891
 20
5675337.71142195
 10
323467.432348638
 20
5675338.09134462
 10
323467.81990332
 20
5675338.53125508
 10
323468.157982937
 20
5675339.00115943
 10
323468.438341643
 20
5675339.51105564
 10
323468.660979439
 20
5675340.05094575
 10
323468.81765048
 20
5675340.61083179
 10
323470.334885831
 20
5675348.30926479
 10
323471.514041565
 20
5675354.24805597
 10
323472.511788725
 20
5675359.30702623
 10
323477.393328548
 20
5675358.29723177
 10
323472.792147431
 20
5675335.07195921
 10
323484.542475553
 20
5675332.74243338
 10
323483.792103722
 20
5675328.9132128
 10
323482.134689018
 20
5675320.47493039
 10
323486.546215717
 20
5675319.59510948
 10
323484.204395937
 20
5675308.10744776
 10
323484.047724895
 20
5675307.32760649
  0
LWPOLYLINE
  5
200EC
  8
Flurstuecke_Flaechen
100
AcDbEntity
100
AcDbPolyline
 70
0
 90
33
 62
7
370
0
 10
323449.901683665
 20
5675487.25098361
 10
323483.717891123
 20
5675487.25098361
 10
323489.679636549
 20
5675482.34198282
 10
323490.462991757
 20
5675480.61233489
 10
323488.7396103
 20
5675475.40339515
 10
323488.500480815
 20
5675474.52357424
 10
323488.343809773
 20
5675473.62375739
 10
323488.269597175
 20
5675472.71394258
 10
323488.277843019
 20
5675471.80412777
 10
323488.368547306
 20
5675470.92430686
 10
323488.533464192
 20
5675470.05448391
 10
323488.772593677
 20
5675469.19465892
 10
323489.08593576
 20
5675468.3748258
 10
323489.498227975
 20
5675467.51500081
 10
323489.984732788
 20
5675466.70516565
 10
323490.553696045
 20
5675465.93532235
 10
323491.180380211
 20
5675465.2354648
 10
323491.295822031
 20
5675465.12548719
 10
323491.403018007
 20
5675465.01550957
 10
323491.518459827
 20
5675464.90553196
 10
323490.718612931
 20
5675460.64639889
 10
323488.005730157
 20
5675453.04794554
 10
323484.352821134
 20
5675445.80941892
 10
323480.873074841
 20
5675440.83043238
 10
323475.925568263
 20
5675434.59170225
 10
323474.029024075
 20
5675432.20218863
 10
323471.942825468
 20
5675429.57272385
 10
323463.19398467
 20
5675431.35236161
 10
323457.116797424
 20
5675432.5821113
 10
323452.861941767
 20
5675433.45193425
 10
323452.202274224
 20
5675445.23953492
 10
323450.915922514
 20
5675468.27484615
 10
323449.901683665
 20
5675487.25098361
  0
LWPOLYLINE
  5
200ED
  8
Flurstuecke_Flaechen
100
AcDbEntity
100
AcDbPolyline
 70
0
 90
9
 62
7
370
0
 10
323418.880817423
 20
5675306.01787308
 10
323403.98057678
 20
5675306.01787308
 10
323403.650743009
 20
5675318.66529874
 10
323416.291622314
 20
5675321.36474927
 10
323418.666425472
 20
5675322.89443791
 10
323418.62519625
 20
5675319.51512576
 10
323418.583967029
 20
5675316.99563859
 10
323418.616950406
 20
5675308.07745386
 10
323418.880817423
 20
5675306.01787308
  0
LWPOLYLINE
  5
200EE
  8
Flurstuecke_Flaechen
100
AcDbEntity
100
AcDbPolyline
 70
0
 90
65
 62
7
370
0
 10
323321.942671879
 20
5675487.25098361
 10
323334.064062994
 20
5675487.25098361
 10
323347.611985173
 20
5675459.38665531
 10
323355.008507506
 20
5675448.84880026
 10
323362.165900355
 20
5675440.03059518
 10
323372.250567929
 20
5675428.36297009
 10
323374.279045626
 20
5675426.0234463
 10
323380.380970405
 20
5675420.49457168
 10
323379.688319484
 20
5675427.66311255
 10
323399.329920597
 20
5675411.98630352
 10
323418.839588202
 20
5675396.40947413
 10
323420.835082522
 20
5675394.81979771
 10
323428.940747465
 20
5675388.35111439
 10
323429.856036181
 20
5675387.67125277
 10
323430.81255412
 20
5675387.05137895
 10
323431.81030128
 20
5675386.50149088
 10
323432.841031817
 20
5675386.00159263
 10
323433.896499886
 20
5675385.5816781
 10
323434.976705489
 20
5675385.22175136
 10
323436.098140314
 20
5675384.93181038
 10
323437.236066826
 20
5675384.70185719
 10
323438.382239184
 20
5675384.56188568
 10
323439.536657385
 20
5675384.48190196
 10
323440.699321431
 20
5675384.49189992
 10
323441.853739632
 20
5675384.56188568
 10
323442.546390553
 20
5675384.62187347
 10
323443.239041474
 20
5675384.74184905
 10
323443.915200706
 20
5675384.92181242
 10
323444.57486825
 20
5675385.16176357
 10
323461.5613075
 20
5675381.75245753
 10
323475.274146564
 20
5675378.9930192
 10
323477.525262057
 20
5675378.54311078
 10
323485.375305827
 20
5675376.98342825
 10
323493.217103752
 20
5675375.43374368
 10
323501.058901678
 20
5675373.87406115
 10
323503.417213146
 20
5675373.4041568
 10
323503.417213146
 20
5675352.90832867
 10
323477.393328548
 20
5675358.29723177
 10
323472.511788725
 20
5675359.30702623
 10
323469.510301401
 20
5675359.92690006
 10
323463.424868311
 20
5675361.71653578
 10
323457.553827172
 20
5675363.44618372
 10
323451.60032759
 20
5675365.19582758
 10
323442.645340685
 20
5675367.84528829
 10
323439.759295181
 20
5675368.68511735
 10
323435.149868219
 20
5675370.05483854
 10
323429.58392332
 20
5675372.62431553
 10
323403.63425132
 20
5675389.12095769
 10
323393.632042189
 20
5675396.99935407
 10
323392.3869197
 20
5675397.97915463
 10
323388.940156784
 20
5675400.73859296
 10
323367.583420058
 20
5675417.72513539
 10
323365.521958984
 20
5675419.37479961
 10
323358.026486519
 20
5675425.98345444
 10
323356.6082013
 20
5675427.55313493
 10
323349.995034174
 20
5675434.9216351
 10
323349.417825073
 20
5675435.74146822
 10
323343.052033277
 20
5675444.7896265
 10
323339.118765548
 20
5675451.89817957
 10
323338.203476831
 20
5675453.54784379
 10
323334.929876645
 20
5675460.34645995
 10
323332.472615045
 20
5675465.45542003
 10
323330.015353445
 20
5675470.56438012
 10
323324.80397985
 20
5675481.3221904
 10
323321.942671879
 20
5675487.25098361
  0
LWPOLYLINE
  5
200EF
  8
Gebaeude_Flaechen
100
AcDbEntity
100
AcDbPolyline
 70
0
 90
9
 62
7
370
0
 10
323431.538188418
 20
5675467.65497232
 10
323431.488713352
 20
5675468.15487057
 10
323432.478214668
 20
5675468.25485022
 10
323434.67160925
 20
5675447.44908517
 10
323409.744421943
 20
5675444.82961835
 10
323408.614741275
 20
5675455.62742049
 10
323426.401027421
 20
5675457.48704197
 10
323425.411526106
 20
5675467.01510256
 10
323431.538188418
 20
5675467.65497232
  0
LWPOLYLINE
  5
200F0
  8
Gebaeude_Flaechen
100
AcDbEntity
100
AcDbPolyline
 70
0
 90
6
 62
7
370
0
 10
323456.465375725
 20
5675429.48274217
 10
323457.116797424
 20
5675432.5821113
 10
323463.19398467
 20
5675431.35236161
 10
323462.526071282
 20
5675428.19300469
 10
323461.181998662
 20
5675428.48294567
 10
323456.465375725
 20
5675429.48274217
  0
LWPOLYLINE
  5
200F1
  8
Gebaeude_Flaechen
100
AcDbEntity
100
AcDbPolyline
 70
0
 90
10
 62
7
370
0
 10
323489.011723161
 20
5675395.51965525
 10
323489.795078369
 20
5675399.51884123
 10
323491.238101121
 20
5675406.86734547
 10
323499.038669825
 20
5675405.32765886
 10
323499.096390735
 20
5675405.3176609
 10
323498.420231503
 20
5675401.87836096
 10
323497.645122139
 20
5675397.9591587
 10
323497.405992655
 20
5675396.72940901
 10
323496.870012775
 20
5675393.99996458
 10
323489.011723161
 20
5675395.51965525
  0
LWPOLYLINE
  5
200F2
  8
Gebaeude_Flaechen
100
AcDbEntity
100
AcDbPolyline
 70
0
 90
15
 62
7
370
0
 10
323393.970121805
 20
5675466.50520635
 10
323395.050327408
 20
5675457.03713355
 10
323389.179286269
 20
5675456.3672699
 10
323388.98963185
 20
5675458.01693411
 10
323381.840484846
 20
5675457.19710099
 10
323379.407960778
 20
5675478.49276632
 10
323387.315725458
 20
5675479.39258316
 10
323387.521871565
 20
5675477.65293726
 10
323392.123052683
 20
5675478.17283144
 10
323392.007610863
 20
5675479.12263811
 10
323401.275939851
 20
5675480.18242239
 10
323403.048796375
 20
5675478.87268899
 10
323404.186722888
 20
5675468.89471997
 10
323402.801421046
 20
5675467.50500285
 10
323393.970121805
 20
5675466.50520635
  0
LWPOLYLINE
  5
200F3
  8
Gebaeude_Flaechen
100
AcDbEntity
100
AcDbPolyline
 70
0
 90
6
 62
7
370
0
 10
323430.680620611
 20
5675414.50579068
 10
323425.238363376
 20
5675415.64555869
 10
323426.30207729
 20
5675420.93448214
 10
323434.572659119
 20
5675419.20483421
 10
323433.467715983
 20
5675413.92590872
 10
323430.680620611
 20
5675414.50579068
  0
LWPOLYLINE
  5
200F4
  8
Gebaeude_Flaechen
100
AcDbEntity
100
AcDbPolyline
 70
0
 90
5
 62
7
370
0
 10
323460.613035406
 20
5675347.38945202
 10
323454.626552447
 20
5675348.56921188
 10
323456.547834168
 20
5675358.38721346
 10
323462.567300504
 20
5675357.20745359
 10
323460.613035406
 20
5675347.38945202
  0
LWPOLYLINE
  5
200F5
  8
Gebaeude_Flaechen
100
AcDbEntity
100
AcDbPolyline
 70
0
 90
5
 62
7
370
0
 10
323424.628170898
 20
5675412.74614885
 10
323425.238363376
 20
5675415.64555869
 10
323430.680620611
 20
5675414.50579068
 10
323430.095165666
 20
5675411.60638085
 10
323424.628170898
 20
5675412.74614885
  0
LWPOLYLINE
  5
200F6
  8
Gebaeude_Flaechen
100
AcDbEntity
100
AcDbPolyline
 70
0
 90
5
 62
7
370
0
 10
323502.55964534
 20
5675424.55374545
 10
323496.721587578
 20
5675425.76349921
 10
323497.3400259
 20
5675428.77288666
 10
323503.186329506
 20
5675427.57313086
 10
323502.55964534
 20
5675424.55374545
  0
LWPOLYLINE
  5
200F7
  8
Gebaeude_Flaechen
100
AcDbEntity
100
AcDbPolyline
 70
0
 90
7
 62
7
370
0
 10
323434.778805226
 20
5675357.65736202
 10
323434.820034448
 20
5675358.78713205
 10
323434.844771981
 20
5675359.60696518
 10
323434.960213801
 20
5675363.65614098
 10
323438.926464907
 20
5675362.85630379
 10
323437.788538394
 20
5675357.06748208
 10
323434.778805226
 20
5675357.65736202
  0
LWPOLYLINE
  5
200F8
  8
Gebaeude_Flaechen
100
AcDbEntity
100
AcDbPolyline
 70
0
 90
5
 62
7
370
0
 10
323496.119640944
 20
5675422.87408734
 10
323496.721587578
 20
5675425.76349921
 10
323502.55964534
 20
5675424.55374545
 10
323501.96594455
 20
5675421.66433358
 10
323496.119640944
 20
5675422.87408734
  0
LWPOLYLINE
  5
200F9
  8
Gebaeude_Flaechen
100
AcDbEntity
100
AcDbPolyline
 70
0
 90
8
 62
7
370
0
 10
323450.454155233
 20
5675430.75248371
 10
323456.465375725
 20
5675429.48274217
 10
323461.181998662
 20
5675428.48294567
 10
323458.823687193
 20
5675417.35521069
 10
323449.415178852
 20
5675419.34480571
 10
323450.412926011
 20
5675424.0538472
 10
323449.093590924
 20
5675424.33379022
 10
323450.454155233
 20
5675430.75248371
  0
LWPOLYLINE
  5
200FA
  8
Gebaeude_Flaechen
100
AcDbEntity
100
AcDbPolyline
 70
0
 90
5
 62
7
370
0
 10
323448.532873512
 20
5675349.76896768
 10
323450.48713861
 20
5675359.58696925
 10
323456.547834168
 20
5675358.38721346
 10
323454.626552447
 20
5675348.56921188
 10
323448.532873512
 20
5675349.76896768
  0
LWPOLYLINE
  5
200FB
  8
Gebaeude_Flaechen
100
AcDbEntity
100
AcDbPolyline
 70
0
 90
5
 62
7
370
0
 10
323436.254811355
 20
5675413.33602878
 10
323433.467715983
 20
5675413.92590872
 10
323434.572659119
 20
5675419.20483421
 10
323437.359754491
 20
5675418.62495224
 10
323436.254811355
 20
5675413.33602878
  0
LWPOLYLINE
  5
200FC
  8
Gebaeude_Flaechen
100
AcDbEntity
100
AcDbPolyline
 70
0
 90
7
 62
7
370
0
 10
323456.589063389
 20
5675435.76146415
 10
323457.504352106
 20
5675440.25055041
 10
323462.385891929
 20
5675439.25075392
 10
323462.262204265
 20
5675438.67087195
 10
323463.853652214
 20
5675438.35093707
 10
323463.053805317
 20
5675434.42173685
 10
323456.589063389
 20
5675435.76146415
  0
LWPOLYLINE
  5
200FD
  8
Gebaeude_Flaechen
100
AcDbEntity
100
AcDbPolyline
 70
0
 90
9
 62
7
370
0
 10
323429.04794344
 20
5675354.89792369
 10
323430.969225161
 20
5675354.82793794
 10
323430.796062431
 20
5675350.7587662
 10
323419.458026524
 20
5675351.1586848
 10
323419.68066432
 20
5675358.40720939
 10
323425.510476237
 20
5675358.15726026
 10
323427.670887443
 20
5675358.06727858
 10
323429.179876949
 20
5675358.00729079
 10
323429.04794344
 20
5675354.89792369
  0
LWPOLYLINE
  5
200FE
  8
Gebaeude_Flaechen
100
AcDbEntity
100
AcDbPolyline
 70
0
 90
8
 62
7
370
0
 10
323430.16113242
 20
5675360.27682883
 10
323430.589916324
 20
5675360.74673318
 10
323430.779570743
 20
5675365.33579909
 10
323435.009688866
 20
5675365.16583369
 10
323434.960213801
 20
5675363.65614098
 10
323434.844771981
 20
5675359.60696518
 10
323430.779570743
 20
5675359.77693058
 10
323430.16113242
 20
5675360.27682883
  0
LWPOLYLINE
  5
200FF
  8
Gebaeude_Flaechen
100
AcDbEntity
100
AcDbPolyline
 70
0
 90
5
 62
7
370
0
 10
323470.334885831
 20
5675348.30926479
 10
323467.399365261
 20
5675348.92913862
 10
323468.570275151
 20
5675354.8379359
 10
323471.514041565
 20
5675354.24805597
 10
323470.334885831
 20
5675348.30926479
  0
LWPOLYLINE
  5
20100
  8
Gebaeude_Flaechen
100
AcDbEntity
100
AcDbPolyline
 70
0
 90
9
 62
7
370
0
 10
323473.253914712
 20
5675398.70900607
 10
323474.045515764
 20
5675402.63820629
 10
323474.029024075
 20
5675402.63820629
 10
323474.03726992
 20
5675402.67819815
 10
323475.488538516
 20
5675410.01670442
 10
323483.379811507
 20
5675408.41703003
 10
323481.936788755
 20
5675401.07852376
 10
323481.161679391
 20
5675397.10933168
 10
323473.253914712
 20
5675398.70900607
  0
LWPOLYLINE
  5
20101
  8
Gebaeude_Flaechen
100
AcDbEntity
100
AcDbPolyline
 70
0
 90
10
 62
7
370
0
 10
323421.79160046
 20
5675333.14235197
 10
323421.84932137
 20
5675334.5320691
 10
323418.996259244
 20
5675334.64204672
 10
323419.210651195
 20
5675342.32048379
 10
323427.769837575
 20
5675342.01054688
 10
323427.629658222
 20
5675338.23131613
 10
323427.489478868
 20
5675334.3321098
 10
323425.766097411
 20
5675334.39209759
 10
323425.716622345
 20
5675333.00238047
 10
323421.79160046
 20
5675333.14235197
  0
LWPOLYLINE
  5
20102
  8
Gebaeude_Flaechen
100
AcDbEntity
100
AcDbPolyline
 70
0
 90
9
 62
7
370
0
 10
323486.546215717
 20
5675319.59510948
 10
323482.134689018
 20
5675320.47493039
 10
323481.9450346
 20
5675320.50492429
 10
323483.602449303
 20
5675328.9432067
 10
323483.792103722
 20
5675328.9132128
 10
323488.896281341
 20
5675327.91341631
 10
323487.659404697
 20
5675321.5847045
 10
323487.238866638
 20
5675319.45513797
 10
323486.546215717
 20
5675319.59510948
  0
LWPOLYLINE
  5
20103
  8
Gebaeude_Flaechen
100
AcDbEntity
100
AcDbPolyline
 70
0
 90
6
 62
7
370
0
 10
323483.338582286
 20
5675328.99319652
 10
323486.290594544
 20
5675344.08012562
 10
323491.840047755
 20
5675342.99034744
 10
323488.896281341
 20
5675327.91341631
 10
323483.792103722
 20
5675328.9132128
 10
323483.338582286
 20
5675328.99319652
  0
LWPOLYLINE
  5
20104
  8
Gebaeude_Flaechen
100
AcDbEntity
100
AcDbPolyline
 70
0
 90
5
 62
7
370
0
 10
323483.379811507
 20
5675408.41703003
 10
323491.238101121
 20
5675406.86734547
 10
323489.795078369
 20
5675399.51884123
 10
323481.936788755
 20
5675401.07852376
 10
323483.379811507
 20
5675408.41703003
  0
LWPOLYLINE
  5
20105
  8
Gebaeude_Flaechen
100
AcDbEntity
100
AcDbPolyline
 70
0
 90
5
 62
7
370
0
 10
323442.018656518
 20
5675412.13627299
 10
323443.123599654
 20
5675417.41519848
 10
323445.927186714
 20
5675416.82531855
 10
323444.822243579
 20
5675411.54639306
 10
323442.018656518
 20
5675412.13627299
  0
LWPOLYLINE
  5
20106
  8
Gebaeude_Flaechen
100
AcDbEntity
100
AcDbPolyline
 70
0
 90
8
 62
7
370
0
 10
323419.68066432
 20
5675358.40720939
 10
323419.903302116
 20
5675365.79570548
 10
323430.779570743
 20
5675365.33579909
 10
323430.589916324
 20
5675360.74673318
 10
323430.16113242
 20
5675360.27682883
 10
323425.609426369
 20
5675360.47678813
 10
323425.510476237
 20
5675358.15726026
 10
323419.68066432
 20
5675358.40720939
  0
LWPOLYLINE
  5
20107
  8
Gebaeude_Flaechen
100
AcDbEntity
100
AcDbPolyline
 70
0
 90
5
 62
7
370
0
 10
323424.07569933
 20
5675409.88673088
 10
323424.628170898
 20
5675412.74614885
 10
323430.095165666
 20
5675411.60638085
 10
323429.517956565
 20
5675408.74696287
 10
323424.07569933
 20
5675409.88673088
  0
LWPOLYLINE
  5
20108
  8
Gebaeude_Flaechen
100
AcDbEntity
100
AcDbPolyline
 70
0
 90
6
 62
7
370
0
 10
323422.929526973
 20
5675404.15789697
 10
323428.380030052
 20
5675403.05812082
 10
323425.139413244
 20
5675398.5590366
 10
323424.290091282
 20
5675399.16891246
 10
323422.220384363
 20
5675400.65860924
 10
323422.929526973
 20
5675404.15789697
  0
LWPOLYLINE
  5
20109
  8
Gebaeude_Flaechen
100
AcDbEntity
100
AcDbPolyline
 70
0
 90
5
 62
7
370
0
 10
323428.940747465
 20
5675405.87754694
 10
323423.498490229
 20
5675407.00731697
 10
323424.07569933
 20
5675409.88673088
 10
323429.517956565
 20
5675408.74696287
 10
323428.940747465
 20
5675405.87754694
  0
LWPOLYLINE
  5
2010A
  8
Gebaeude_Flaechen
100
AcDbEntity
100
AcDbPolyline
 70
0
 90
8
 62
7
370
0
 10
323442.331998601
 20
5675350.97872143
 10
323443.329745761
 20
5675355.9777039
 10
323444.294509544
 20
5675360.80672097
 10
323444.616097471
 20
5675360.73673522
 10
323450.48713861
 20
5675359.58696925
 10
323448.532873512
 20
5675349.76896768
 10
323442.373227823
 20
5675350.97872143
 10
323442.331998601
 20
5675350.97872143
  0
LWPOLYLINE
  5
2010B
  8
Gebaeude_Flaechen
100
AcDbEntity
100
AcDbPolyline
 70
0
 90
5
 62
7
370
0
 10
323428.380030052
 20
5675403.05812082
 10
323422.929526973
 20
5675404.15789697
 10
323423.498490229
 20
5675407.00731697
 10
323428.940747465
 20
5675405.87754694
 10
323428.380030052
 20
5675403.05812082
  0
LWPOLYLINE
  5
2010C
  8
Gebaeude_Flaechen
100
AcDbEntity
100
AcDbPolyline
 70
0
 90
6
 62
7
370
0
 10
323437.788538394
 20
5675357.06748208
 10
323438.926464907
 20
5675362.85630379
 10
323441.548643393
 20
5675362.33640961
 10
323441.870231321
 20
5675362.26642385
 10
323440.724058964
 20
5675356.48760012
 10
323437.788538394
 20
5675357.06748208
  0
LWPOLYLINE
  5
2010D
  8
Gebaeude_Flaechen
100
AcDbEntity
100
AcDbPolyline
 70
0
 90
5
 62
7
370
0
 10
323442.018656518
 20
5675412.13627299
 10
323439.18208608
 20
5675412.72615292
 10
323440.287029216
 20
5675418.00507841
 10
323443.123599654
 20
5675417.41519848
 10
323442.018656518
 20
5675412.13627299
  0
LWPOLYLINE
  5
2010E
  8
Gebaeude_Flaechen
100
AcDbEntity
100
AcDbPolyline
 70
0
 90
7
 62
7
370
0
 10
323443.329745761
 20
5675355.9777039
 10
323440.724058964
 20
5675356.48760012
 10
323441.870231321
 20
5675362.26642385
 10
323444.797506046
 20
5675361.68654189
 10
323444.616097471
 20
5675360.73673522
 10
323444.294509544
 20
5675360.80672097
 10
323443.329745761
 20
5675355.9777039
  0
LWPOLYLINE
  5
2010F
  8
Gebaeude_Flaechen
100
AcDbEntity
100
AcDbPolyline
 70
0
 90
7
 62
7
370
0
 10
323460.613035406
 20
5675347.38945202
 10
323462.567300504
 20
5675357.20745359
 10
323468.801158792
 20
5675355.9777039
 10
323468.570275151
 20
5675354.8379359
 10
323467.399365261
 20
5675348.92913862
 10
323466.855139538
 20
5675346.1697003
 10
323460.613035406
 20
5675347.38945202
  0
LWPOLYLINE
  5
20110
  8
Gebaeude_Flaechen
100
AcDbEntity
100
AcDbPolyline
 70
0
 90
5
 62
7
370
0
 10
323439.18208608
 20
5675412.72615292
 10
323436.254811355
 20
5675413.33602878
 10
323437.359754491
 20
5675418.62495224
 10
323440.287029216
 20
5675418.00507841
 10
323439.18208608
 20
5675412.72615292
  0
LWPOLYLINE
  5
20111
  8
Gebaeude_Flaechen
100
AcDbEntity
100
AcDbPolyline
 70
0
 90
5
 62
7
370
0
 10
323495.501202622
 20
5675419.84470396
 10
323496.119640944
 20
5675422.87408734
 10
323501.96594455
 20
5675421.66433358
 10
323501.339260384
 20
5675418.64494817
 10
323495.501202622
 20
5675419.84470396
  0
LWPOLYLINE
  5
20112
  8
Gebaeude_Flaechen
100
AcDbEntity
100
AcDbPolyline
 70
0
 90
9
 62
7
370
0
 10
323419.210651195
 20
5675342.32048379
 10
323419.458026524
 20
5675351.1586848
 10
323430.796062431
 20
5675350.7587662
 10
323434.572659119
 20
5675350.62879266
 10
323434.448971454
 20
5675346.39965349
 10
323428.544946938
 20
5675346.56961889
 10
323428.404767585
 20
5675341.98055298
 10
323427.769837575
 20
5675342.01054688
 10
323419.210651195
 20
5675342.32048379
  0
LWPOLYLINE
  5
20113
  8
Gebaeude_Flaechen
100
AcDbEntity
100
AcDbPolyline
 70
0
 90
5
 62
7
370
0
 10
323374.147112117
 20
5675362.57636077
 10
323372.069159355
 20
5675356.27764285
 10
323367.31955304
 20
5675357.76733963
 10
323369.034688654
 20
5675364.04606161
 10
323374.147112117
 20
5675362.57636077
  0
LWPOLYLINE
  5
20114
  8
Gebaeude_Flaechen
100
AcDbEntity
100
AcDbPolyline
 70
0
 90
6
 62
7
370
0
 10
323355.585716607
 20
5675365.24581741
 10
323354.84359062
 20
5675362.31641368
 10
323351.240156663
 20
5675363.35620203
 10
323351.949299272
 20
5675366.68552436
 10
323355.659929206
 20
5675365.53575839
 10
323355.585716607
 20
5675365.24581741
  0
LWPOLYLINE
  5
20115
  8
Gebaeude_Flaechen
100
AcDbEntity
100
AcDbPolyline
 70
0
 90
7
 62
7
370
0
 10
323400.12152165
 20
5675362.44638722
 10
323400.096784117
 20
5675362.11645438
 10
323390.548096422
 20
5675362.3664035
 10
323392.27147788
 20
5675369.38497489
 10
323400.814172571
 20
5675369.11502984
 10
323400.616272308
 20
5675362.46638315
 10
323400.12152165
 20
5675362.44638722
  0
LWPOLYLINE
  5
20116
  8
Gebaeude_Flaechen
100
AcDbEntity
100
AcDbPolyline
 70
0
 90
5
 62
7
370
0
 10
323441.490922483
 20
5675346.45964128
 10
323442.373227823
 20
5675350.97872143
 10
323448.532873512
 20
5675349.76896768
 10
323447.642322328
 20
5675345.24988752
 10
323441.490922483
 20
5675346.45964128
  0
LWPOLYLINE
  5
20117
  8
Gebaeude_Flaechen
100
AcDbEntity
100
AcDbPolyline
 70
0
 90
9
 62
7
370
0
 10
323346.573008791
 20
5675355.73775275
 10
323345.632982542
 20
5675347.8793523
 10
323340.017562576
 20
5675348.56921188
 10
323340.14125024
 20
5675349.60900024
 10
323338.368393717
 20
5675349.82895547
 10
323338.871390219
 20
5675354.18806818
 10
323340.701967653
 20
5675354.44801527
 10
323340.718459341
 20
5675354.64797457
 10
323346.573008791
 20
5675355.73775275
  0
LWPOLYLINE
  5
20118
  8
Gebaeude_Flaechen
100
AcDbEntity
100
AcDbPolyline
 70
0
 90
5
 62
7
370
0
 10
323398.670253054
 20
5675356.98749836
 10
323389.838953813
 20
5675359.41700384
 10
323390.548096422
 20
5675362.3664035
 10
323400.096784117
 20
5675362.11645438
 10
323398.670253054
 20
5675356.98749836
  0
LWPOLYLINE
  5
20119
  8
Gebaeude_Flaechen
100
AcDbEntity
100
AcDbPolyline
 70
0
 90
5
 62
7
370
0
 10
323301.798074264
 20
5675354.32803969
 10
323301.443502959
 20
5675351.39863596
 10
323298.004985888
 20
5675351.79855456
 10
323298.235869528
 20
5675354.72795829
 10
323301.798074264
 20
5675354.32803969
  0
LWPOLYLINE
  5
2011A
  8
Gebaeude_Flaechen
100
AcDbEntity
100
AcDbPolyline
 70
0
 90
6
 62
7
370
0
 10
323398.472352791
 20
5675342.38047158
 10
323397.804439403
 20
5675340.1209315
 10
323392.312707102
 20
5675341.90056926
 10
323389.946149789
 20
5675342.67041257
 10
323390.605817332
 20
5675344.69999945
 10
323398.472352791
 20
5675342.38047158
  0
LWPOLYLINE
  5
2011B
  8
Gebaeude_Flaechen
100
AcDbEntity
100
AcDbPolyline
 70
0
 90
8
 62
7
370
0
 10
323376.299277479
 20
5675353.42822284
 10
323371.59914623
 20
5675354.87792776
 10
323372.069159355
 20
5675356.27764285
 10
323374.147112117
 20
5675362.57636077
 10
323374.683091997
 20
5675362.41639333
 10
323378.476180373
 20
5675361.27662532
 10
323376.307523323
 20
5675353.45821674
 10
323376.299277479
 20
5675353.42822284
  0
LWPOLYLINE
  5
2011C
  8
Gebaeude_Flaechen
100
AcDbEntity
100
AcDbPolyline
 70
0
 90
11
 62
7
370
0
 10
323382.84647785
 20
5675360.26683087
 10
323384.404942422
 20
5675359.80692448
 10
323385.155314253
 20
5675359.58696925
 10
323385.410935426
 20
5675360.4567922
 10
323385.773752575
 20
5675360.35681255
 10
323386.548861939
 20
5675360.12685936
 10
323384.091600338
 20
5675351.01871329
 10
323376.307523323
 20
5675353.45821674
 10
323378.476180373
 20
5675361.27662532
 10
323378.550392971
 20
5675361.54657038
 10
323382.84647785
 20
5675360.26683087
  0
LWPOLYLINE
  5
2011D
  8
Gebaeude_Flaechen
100
AcDbEntity
100
AcDbPolyline
 70
0
 90
10
 62
7
370
0
 10
323331.268721778
 20
5675455.20750597
 10
323332.489106734
 20
5675452.64802694
 10
323322.503389291
 20
5675447.85900173
 10
323320.400698996
 20
5675446.84920727
 10
323317.762028821
 20
5675452.29809817
 10
323319.864719116
 20
5675453.30789263
 10
323319.938931715
 20
5675453.13792722
 10
323330.36992475
 20
5675458.15690562
 10
323331.689259837
 20
5675455.40746526
 10
323331.268721778
 20
5675455.20750597
  0
LWPOLYLINE
  5
2011E
  8
Gebaeude_Flaechen
100
AcDbEntity
100
AcDbPolyline
 70
0
 90
12
 62
7
370
0
 10
323384.091600338
 20
5675351.01871329
 10
323386.548861939
 20
5675360.12685936
 10
323389.781232903
 20
5675359.17705269
 10
323389.838953813
 20
5675359.41700384
 10
323398.670253054
 20
5675356.98749836
 10
323397.136526015
 20
5675351.388638
 10
323400.789435038
 20
5675350.36884557
 10
323399.766950345
 20
5675346.66959854
 10
323396.311941585
 20
5675347.66939504
 10
323396.287204052
 20
5675347.58941132
 10
323396.105795478
 20
5675347.63940114
 10
323384.091600338
 20
5675351.01871329
  0
LWPOLYLINE
  5
2011F
  8
Gebaeude_Flaechen
100
AcDbEntity
100
AcDbPolyline
 70
0
 90
21
 62
7
370
0
 10
323374.93871317
 20
5675330.69285056
 10
323383.679308124
 20
5675327.01359946
 10
323384.281254757
 20
5675326.75365238
 10
323384.578105152
 20
5675326.6336768
 10
323383.168065777
 20
5675323.58429749
 10
323383.225786687
 20
5675323.56430156
 10
323384.141075404
 20
5675323.20437482
 10
323383.398949417
 20
5675319.54511965
 10
323380.446937159
 20
5675319.75507692
 10
323378.27828011
 20
5675319.90504639
 10
323375.804526821
 20
5675314.03624097
 10
323371.698096361
 20
5675314.4561555
 10
323371.739325583
 20
5675314.8260802
 10
323372.374255594
 20
5675316.24579122
 10
323364.639653644
 20
5675319.91504435
 10
323369.166622163
 20
5675330.18295435
 10
323369.25732645
 20
5675330.40290958
 10
323372.316534684
 20
5675329.08317821
 10
323373.297790155
 20
5675331.34271828
 10
323374.806779661
 20
5675330.74284039
 10
323374.93871317
 20
5675330.69285056
  0
LWPOLYLINE
  5
20120
  8
Gebaeude_Flaechen
100
AcDbEntity
100
AcDbPolyline
 70
0
 90
8
 62
7
370
0
 10
323365.32405872
 20
5675348.48922816
 10
323363.163647515
 20
5675343.30028436
 10
323363.353301934
 20
5675343.22030064
 10
323361.926770871
 20
5675339.53105157
 10
323355.684666738
 20
5675342.02054484
 10
323356.929789227
 20
5675345.26988345
 10
323359.090200433
 20
5675350.90873568
 10
323365.32405872
 20
5675348.48922816
  0
LWPOLYLINE
  5
20121
  8
Gebaeude_Flaechen
100
AcDbEntity
100
AcDbPolyline
 70
0
 90
9
 62
7
370
0
 10
323396.740725488
 20
5675320.0450179
 10
323396.592300291
 20
5675312.22660931
 10
323387.719771829
 20
5675312.89647296
 10
323388.222768331
 20
5675319.19519088
 10
323388.321718462
 20
5675320.2149833
 10
323388.461897815
 20
5675321.50472078
 10
323388.766994054
 20
5675324.91402683
 10
323396.748971333
 20
5675321.70468008
 10
323396.740725488
 20
5675320.0450179
  0
LWPOLYLINE
  5
20122
  8
Gebaeude_Flaechen
100
AcDbEntity
100
AcDbPolyline
 70
0
 90
5
 62
7
370
0
 10
323392.312707102
 20
5675341.90056926
 10
323397.804439403
 20
5675340.1209315
 10
323396.988100817
 20
5675337.2415176
 10
323391.38917254
 20
5675339.02115536
 10
323392.312707102
 20
5675341.90056926
  0
LWPOLYLINE
  5
20123
  8
Gebaeude_Flaechen
100
AcDbEntity
100
AcDbPolyline
 70
0
 90
13
 62
7
370
0
 10
323371.607392074
 20
5675366.83549383
 10
323373.512182107
 20
5675372.4343542
 10
323377.956692182
 20
5675370.92466149
 10
323377.618612566
 20
5675369.94486093
 10
323386.779745579
 20
5675366.86548773
 10
323384.404942422
 20
5675359.80692448
 10
323382.84647785
 20
5675360.26683087
 10
323378.550392971
 20
5675361.54657038
 10
323378.476180373
 20
5675361.27662532
 10
323374.683091997
 20
5675362.41639333
 10
323375.713822534
 20
5675365.42578078
 10
323371.788800649
 20
5675366.77550604
 10
323371.607392074
 20
5675366.83549383
  0
LWPOLYLINE
  5
20124
  8
Gebaeude_Flaechen
100
AcDbEntity
100
AcDbPolyline
 70
0
 90
7
 62
7
370
0
 10
323361.646412165
 20
5675338.80120013
 10
323361.926770871
 20
5675339.53105157
 10
323363.353301934
 20
5675343.22030064
 10
323370.708595046
 20
5675340.18091929
 10
323373.660607304
 20
5675338.96116757
 10
323371.846521559
 20
5675334.58205893
 10
323361.646412165
 20
5675338.80120013
  0
LWPOLYLINE
  5
20125
  8
Gebaeude_Flaechen
100
AcDbEntity
100
AcDbPolyline
 70
0
 90
7
 62
7
370
0
 10
323354.686919579
 20
5675339.42107396
 10
323348.10673583
 20
5675341.98055298
 10
323350.366097167
 20
5675347.75937672
 10
323350.423818078
 20
5675347.73938079
 10
323356.929789227
 20
5675345.26988345
 10
323355.684666738
 20
5675342.02054484
 10
323354.686919579
 20
5675339.42107396
  0
LWPOLYLINE
  5
20126
  8
Gebaeude_Flaechen
100
AcDbEntity
100
AcDbPolyline
 70
0
 90
12
 62
7
370
0
 10
323359.477755115
 20
5675364.35599853
 10
323358.677908218
 20
5675361.4265948
 10
323358.958266924
 20
5675361.32661515
 10
323357.564719238
 20
5675357.26744138
 10
323355.453783098
 20
5675357.98729486
 10
323355.148686859
 20
5675357.08747801
 10
323353.590222287
 20
5675357.58737626
 10
323354.620952824
 20
5675361.46658666
 10
323354.84359062
 20
5675362.31641368
 10
323355.585716607
 20
5675365.24581741
 10
323355.659929206
 20
5675365.53575839
 10
323359.477755115
 20
5675364.35599853
  0
LWPOLYLINE
  5
20127
  8
Gebaeude_Flaechen
100
AcDbEntity
100
AcDbPolyline
 70
0
 90
5
 62
7
370
0
 10
323350.423818078
 20
5675347.73938079
 10
323352.716162792
 20
5675353.56819435
 10
323359.090200433
 20
5675350.90873568
 10
323356.929789227
 20
5675345.26988345
 10
323350.423818078
 20
5675347.73938079
  0
LWPOLYLINE
  5
20128
  8
Gebaeude_Flaechen
100
AcDbEntity
100
AcDbPolyline
 70
0
 90
5
 62
7
370
0
 10
323383.085607334
 20
5675313.36637732
 10
323384.223533847
 20
5675319.48513186
 10
323388.222768331
 20
5675319.19519088
 10
323387.719771829
 20
5675312.89647296
 10
323383.085607334
 20
5675313.36637732
  0
LWPOLYLINE
  5
20129
  8
Gebaeude_Flaechen
100
AcDbEntity
100
AcDbPolyline
 70
0
 90
9
 62
7
370
0
 10
323379.976924035
 20
5675395.73961048
 10
323380.0263991
 20
5675395.80959624
 10
323385.798490108
 20
5675403.22808623
 10
323388.940156784
 20
5675400.73859296
 10
323381.898205756
 20
5675391.51047131
 10
323381.551880295
 20
5675391.06056289
 10
323377.890725428
 20
5675392.76021693
 10
323380.108857543
 20
5675395.63963083
 10
323379.976924035
 20
5675395.73961048
  0
LWPOLYLINE
  5
2012A
  8
Gebaeude_Flaechen
100
AcDbEntity
100
AcDbPolyline
 70
0
 90
5
 62
7
370
0
 10
323397.375655499
 20
5675375.30377014
 10
323388.890681719
 20
5675379.32295205
 10
323393.780467386
 20
5675390.34070941
 10
323402.446849741
 20
5675386.3815153
 10
323397.375655499
 20
5675375.30377014
  0
LWPOLYLINE
  5
2012B
  8
Gebaeude_Flaechen
100
AcDbEntity
100
AcDbPolyline
 70
0
 90
7
 62
7
370
0
 10
323375.697330845
 20
5675338.47126729
 10
323373.660607304
 20
5675338.96116757
 10
323370.708595046
 20
5675340.18091929
 10
323372.877252096
 20
5675345.92974914
 10
323373.297790155
 20
5675347.03952325
 10
323378.146346601
 20
5675345.11991398
 10
323375.697330845
 20
5675338.47126729
  0
LWPOLYLINE
  5
2012C
  8
Gebaeude_Flaechen
100
AcDbEntity
100
AcDbPolyline
 70
0
 90
7
 62
7
370
0
 10
323363.163647515
 20
5675343.30028436
 10
323365.32405872
 20
5675348.48922816
 10
323365.530204828
 20
5675349.00912234
 10
323372.877252096
 20
5675345.92974914
 10
323370.708595046
 20
5675340.18091929
 10
323363.353301934
 20
5675343.22030064
 10
323363.163647515
 20
5675343.30028436
  0
LWPOLYLINE
  5
2012D
  8
Gebaeude_Flaechen
100
AcDbEntity
100
AcDbPolyline
 70
0
 90
8
 62
7
370
0
 10
323358.545974709
 20
5675358.9171056
 10
323360.475502274
 20
5675366.50556099
 10
323362.825567899
 20
5675365.83569734
 10
323364.491228447
 20
5675365.34579706
 10
323364.285082339
 20
5675364.5359619
 10
323362.850305432
 20
5675358.8871117
 10
323362.602930103
 20
5675357.89731317
 10
323358.545974709
 20
5675358.9171056
  0
LWPOLYLINE
  5
2012E
  8
Gebaeude_Flaechen
100
AcDbEntity
100
AcDbPolyline
 70
0
 90
8
 62
7
370
0
 10
323381.898205756
 20
5675391.51047131
 10
323388.940156784
 20
5675400.73859296
 10
323392.56008243
 20
5675397.85917905
 10
323390.449146291
 20
5675395.2497102
 10
323390.589325644
 20
5675395.13973259
 10
323385.641819066
 20
5675388.65105334
 10
323384.437925799
 20
5675389.57086611
 10
323381.898205756
 20
5675391.51047131
  0
LWPOLYLINE
  5
2012F
  8
Gebaeude_Flaechen
100
AcDbEntity
100
AcDbPolyline
 70
0
 90
7
 62
7
370
0
 10
323378.525655438
 20
5675387.10136877
 10
323381.551880295
 20
5675391.06056289
 10
323381.898205756
 20
5675391.51047131
 10
323384.437925799
 20
5675389.57086611
 10
323381.609601205
 20
5675385.83162722
 10
323378.904964276
 20
5675386.94140133
 10
323378.525655438
 20
5675387.10136877
  0
LWPOLYLINE
  5
20130
  8
Gebaeude_Flaechen
100
AcDbEntity
100
AcDbPolyline
 70
0
 90
11
 62
7
370
0
 10
323315.032654359
 20
5675463.37584332
 10
323322.92392735
 20
5675467.16507204
 10
323322.849714752
 20
5675467.32503948
 10
323324.960650891
 20
5675468.3448319
 10
323325.422418172
 20
5675468.56478713
 10
323326.782982481
 20
5675465.65537933
 10
323326.345952733
 20
5675465.45542003
 10
323327.49212509
 20
5675463.06590641
 10
323317.498161803
 20
5675458.26688324
 10
323315.115112802
 20
5675463.21587588
 10
323315.032654359
 20
5675463.37584332
  0
LWPOLYLINE
  5
20131
  8
Gebaeude_Flaechen
100
AcDbEntity
100
AcDbPolyline
 70
0
 90
14
 62
7
370
0
 10
323321.860213436
 20
5675469.40461618
 10
323322.849714752
 20
5675467.32503948
 10
323322.92392735
 20
5675467.16507204
 10
323315.032654359
 20
5675463.37584332
 10
323315.115112802
 20
5675463.21587588
 10
323310.761307014
 20
5675461.12630121
 10
323308.328782946
 20
5675466.30524705
 10
323310.398489865
 20
5675467.27504965
 10
323309.145121532
 20
5675469.96450222
 10
323319.271018327
 20
5675474.84350911
 10
323320.590353414
 20
5675472.07407282
 10
323321.266512647
 20
5675472.40400567
 10
323322.536372668
 20
5675469.72455106
 10
323321.860213436
 20
5675469.40461618
  0
LWPOLYLINE
  5
20132
  8
Gebaeude_Flaechen
100
AcDbEntity
100
AcDbPolyline
 70
0
 90
8
 62
7
370
0
 10
323327.49212509
 20
5675463.06590641
 10
323328.638297447
 20
5675460.68639075
 10
323329.058835507
 20
5675460.89634802
 10
323330.36992475
 20
5675458.15690562
 10
323319.938931715
 20
5675453.13792722
 10
323319.864719116
 20
5675453.30789263
 10
323317.498161803
 20
5675458.26688324
 10
323327.49212509
 20
5675463.06590641
  0
LWPOLYLINE
  5
20133
  8
Gebaeude_Flaechen
100
AcDbEntity
100
AcDbPolyline
 70
0
 90
17
 62
7
370
0
 10
323300.462247488
 20
5675322.07460478
 10
323300.519968398
 20
5675322.5545071
 10
323300.454001644
 20
5675322.56450506
 10
323301.938253617
 20
5675334.69203654
 10
323308.81528776
 20
5675333.92219324
 10
323310.497439996
 20
5675350.67878248
 10
323321.967409412
 20
5675349.43903483
 10
323321.909688502
 20
5675348.85915286
 10
323326.411919487
 20
5675348.37925055
 10
323325.875939608
 20
5675343.28028843
 10
323334.888647424
 20
5675342.35047769
 10
323334.369159233
 20
5675337.50146469
 10
323344.321893298
 20
5675335.78181472
 10
323340.866884538
 20
5675317.76548189
 10
323332.027339453
 20
5675318.6752967
 10
323307.619640337
 20
5675321.36474927
 10
323300.462247488
 20
5675322.07460478
  0
LWPOLYLINE
  5
20134
  8
Gebaeude_Flaechen
100
AcDbEntity
100
AcDbPolyline
 70
0
 90
5
 62
7
370
0
 10
323365.835301067
 20
5675358.13726433
 10
323362.850305432
 20
5675358.8871117
 10
323364.285082339
 20
5675364.5359619
 10
323367.26183213
 20
5675363.77611656
 10
323365.835301067
 20
5675358.13726433
  0
LWPOLYLINE
  5
20135
  8
Gebaeude_Flaechen
100
AcDbEntity
100
AcDbPolyline
 70
0
 90
7
 62
7
370
0
 10
323383.085607334
 20
5675313.36637732
 10
323382.450677323
 20
5675313.42636511
 10
323379.655336107
 20
5675313.6563183
 10
323380.446937159
 20
5675319.75507692
 10
323383.398949417
 20
5675319.54511965
 10
323384.223533847
 20
5675319.48513186
 10
323383.085607334
 20
5675313.36637732
  0
LWPOLYLINE
  5
20136
  8
Gebaeude_Flaechen
100
AcDbEntity
100
AcDbPolyline
 70
0
 90
8
 62
7
370
0
 10
323374.188341339
 20
5675388.87100857
 10
323376.22506488
 20
5675393.42008262
 10
323376.266294101
 20
5675393.52006227
 10
323377.890725428
 20
5675392.76021693
 10
323381.551880295
 20
5675391.06056289
 10
323378.525655438
 20
5675387.10136877
 10
323375.738560066
 20
5675388.24113678
 10
323374.188341339
 20
5675388.87100857
  0
LWPOLYLINE
  5
20137
  8
Gebaeude_Flaechen
100
AcDbEntity
100
AcDbPolyline
 70
0
 90
7
 62
7
370
0
 10
323388.461897815
 20
5675321.50472078
 10
323384.141075404
 20
5675323.20437482
 10
323383.225786687
 20
5675323.56430156
 10
323383.168065777
 20
5675323.58429749
 10
323384.578105152
 20
5675326.6336768
 10
323388.766994054
 20
5675324.91402683
 10
323388.461897815
 20
5675321.50472078
  0
LWPOLYLINE
  5
20138
  8
Gebaeude_Flaechen
100
AcDbEntity
100
AcDbPolyline
 70
0
 90
5
 62
7
370
0
 10
323487.238866638
 20
5675319.45513797
 10
323487.659404697
 20
5675321.5847045
 10
323489.712619926
 20
5675321.17478794
 10
323489.292081867
 20
5675319.0452214
 10
323487.238866638
 20
5675319.45513797
  0
LWPOLYLINE
  5
20139
  8
Gebaeude_Flaechen
100
AcDbEntity
100
AcDbPolyline
 70
0
 90
8
 62
7
370
0
 10
323367.517453303
 20
5675330.90280783
 10
323368.531692152
 20
5675333.24233162
 10
323370.865266087
 20
5675332.31252088
 10
323373.297790155
 20
5675331.34271828
 10
323372.316534684
 20
5675329.08317821
 10
323369.25732645
 20
5675330.40290958
 10
323369.166622163
 20
5675330.18295435
 10
323367.517453303
 20
5675330.90280783
  0
LWPOLYLINE
  5
2013A
  8
Gebaeude_Flaechen
100
AcDbEntity
100
AcDbPolyline
 70
0
 90
5
 62
7
370
0
 10
323374.93871317
 20
5675330.69285056
 10
323376.431210987
 20
5675333.98218103
 10
323385.081101654
 20
5675330.35291976
 10
323383.679308124
 20
5675327.01359946
 10
323374.93871317
 20
5675330.69285056
  0
LWPOLYLINE
  5
2013B
  8
Gebaeude_Flaechen
100
AcDbEntity
100
AcDbPolyline
 70
0
 90
5
 62
7
370
0
 10
323497.941972534
 20
5675431.68229445
 10
323498.783048652
 20
5675435.93142955
 10
323503.417213146
 20
5675435.00161882
 10
323503.417213146
 20
5675430.55252442
 10
323497.941972534
 20
5675431.68229445
  0
LWPOLYLINE
  5
2013C
  8
Gebaeude_Flaechen
100
AcDbEntity
100
AcDbPolyline
 70
0
 90
10
 62
7
370
0
 10
323503.417213146
 20
5675345.42985089
 10
323503.417213146
 20
5675342.90036576
 10
323503.103871063
 20
5675341.27069747
 10
323503.417213146
 20
5675341.21070968
 10
323503.417213146
 20
5675328.9432067
 10
323489.720865771
 20
5675331.66265316
 10
323492.013210485
 20
5675343.4302579
 10
323499.071653202
 20
5675342.0605367
 10
323499.863254255
 20
5675346.11971047
 10
323503.417213146
 20
5675345.42985089
  0
LWPOLYLINE
  5
2013D
  8
Gebaeude_Flaechen
100
AcDbEntity
100
AcDbPolyline
 70
0
 90
5
 62
7
370
0
 10
323286.180445167
 20
5675306.01787308
 10
323280.358879094
 20
5675306.01787308
 10
323280.746433776
 20
5675309.07725036
 10
323285.990790748
 20
5675308.37739281
 10
323286.180445167
 20
5675306.01787308
  0
LWPOLYLINE
  5
2013E
  8
Gebaeude_Flaechen
100
AcDbEntity
100
AcDbPolyline
 70
0
 90
12
 62
7
370
0
 10
323293.049233466
 20
5675487.25098361
 10
323309.780051542
 20
5675487.25098361
 10
323312.459950939
 20
5675481.72210899
 10
323303.373030524
 20
5675477.35299831
 10
323303.257588704
 20
5675477.29301052
 10
323302.754592202
 20
5675478.34279684
 10
323300.618918529
 20
5675477.29301052
 10
323298.961503826
 20
5675480.71231453
 10
323297.691643804
 20
5675483.34177931
 10
323296.982501195
 20
5675483.00184851
 10
323294.690156481
 20
5675483.8316796
 10
323293.049233466
 20
5675487.25098361
  0
LWPOLYLINE
  5
2013F
  8
Gebaeude_Flaechen
100
AcDbEntity
100
AcDbPolyline
 70
0
 90
36
 62
7
370
0
 10
323437.60712982
 20
5675319.26517663
 10
323439.215069457
 20
5675320.02502197
 10
323440.097374797
 20
5675318.18539642
 10
323444.014150838
 20
5675320.0450179
 10
323443.263779007
 20
5675321.62469636
 10
323450.948905891
 20
5675325.29394949
 10
323450.231517437
 20
5675326.81364017
 10
323455.418153499
 20
5675329.29313547
 10
323458.881408104
 20
5675322.06460682
 10
323457.801202501
 20
5675321.54471264
 10
323458.477361733
 20
5675320.12500162
 10
323461.569553344
 20
5675321.5847045
 10
323463.499080909
 20
5675317.5355287
 10
323460.56356034
 20
5675316.13581361
 10
323461.264457105
 20
5675314.65611479
 10
323455.954133378
 20
5675312.12662966
 10
323455.236744925
 20
5675313.63632237
 10
323450.849955759
 20
5675311.5467477
 10
323451.575590057
 20
5675310.02705703
 10
323446.182807888
 20
5675307.45758004
 10
323445.45717359
 20
5675308.97727071
 10
323440.328258437
 20
5675306.5277693
 10
323440.575633766
 20
5675306.01787308
 10
323424.735366874
 20
5675306.01787308
 10
323424.619925053
 20
5675306.26782221
 10
323424.092191018
 20
5675306.01787308
 10
323422.838822685
 20
5675306.01787308
 10
323420.513494594
 20
5675310.88688201
 10
323426.12891456
 20
5675313.56633662
 10
323426.928761456
 20
5675311.90667444
 10
323431.373271532
 20
5675314.026243
 10
323430.598162168
 20
5675315.64591332
 10
323436.007436026
 20
5675318.22538828
 10
323436.78254539
 20
5675316.60571796
 10
323438.489435159
 20
5675317.41555312
 10
323437.60712982
 20
5675319.26517663
  0
LWPOLYLINE
  5
20140
  8
Gebaeude_Flaechen
100
AcDbEntity
100
AcDbPolyline
 70
0
 90
12
 62
7
370
0
 10
323503.417213146
 20
5675309.05725443
 10
323503.417213146
 20
5675306.01787308
 10
323490.652646176
 20
5675306.01787308
 10
323489.745603304
 20
5675306.19783645
 10
323489.894028501
 20
5675306.97767772
 10
323484.204395937
 20
5675308.10744776
 10
323486.546215717
 20
5675319.59510948
 10
323487.238866638
 20
5675319.45513797
 10
323489.292081867
 20
5675319.0452214
 10
323491.864785288
 20
5675318.53532519
 10
323490.495975135
 20
5675311.62673142
 10
323503.417213146
 20
5675309.05725443
  0
LWPOLYLINE
  5
20141
  8
Gebaeude_Flaechen
100
AcDbEntity
100
AcDbPolyline
 70
0
 90
20
 62
7
370
0
 10
323452.441403708
 20
5675487.25098361
 10
323478.127208691
 20
5675487.25098361
 10
323477.475786991
 20
5675481.84208457
 10
323479.809360927
 20
5675481.37218022
 10
323474.416578757
 20
5675454.91756498
 10
323476.923315423
 20
5675454.40766877
 10
323473.38584822
 20
5675437.01120977
 10
323463.977339878
 20
5675438.93081904
 10
323463.853652214
 20
5675438.35093707
 10
323462.262204265
 20
5675438.67087195
 10
323462.385891929
 20
5675439.25075392
 10
323457.504352106
 20
5675440.25055041
 10
323456.234492084
 20
5675440.5104975
 10
323458.914391481
 20
5675453.66781936
 10
323453.59582191
 20
5675454.74759958
 10
323456.407654815
 20
5675468.5147973
 10
323461.717978541
 20
5675467.43501709
 10
323464.744203398
 20
5675482.31198893
 10
323452.029111494
 20
5675483.84167756
 10
323452.441403708
 20
5675487.25098361
  0
LWPOLYLINE
  5
20142
  8
Gebaeude_Flaechen
100
AcDbEntity
100
AcDbPolyline
 70
0
 90
11
 62
7
370
0
 10
323497.405992655
 20
5675396.72940901
 10
323497.645122139
 20
5675397.9591587
 10
323498.420231503
 20
5675401.87836096
 10
323499.096390735
 20
5675405.3176609
 10
323499.038669825
 20
5675405.32765886
 10
323499.813779189
 20
5675409.27685502
 10
323503.417213146
 20
5675408.57699747
 10
323503.417213146
 20
5675396.82938866
 10
323500.39098829
 20
5675397.41926859
 10
323500.151858805
 20
5675396.20951484
 10
323497.405992655
 20
5675396.72940901
  0
LWPOLYLINE
  5
20143
  8
Gebaeude_Flaechen
100
AcDbEntity
100
AcDbPolyline
 70
0
 90
4
 62
7
370
0
 10
323474.424824602
 20
5675306.01787308
 10
323473.187947957
 20
5675306.01787308
 10
323474.202186806
 20
5675306.48777744
 10
323474.424824602
 20
5675306.01787308
  0
LWPOLYLINE
  5
20144
  8
Gebaeude_Flaechen
100
AcDbEntity
100
AcDbPolyline
 70
0
 90
6
 62
7
370
0
 10
323497.3400259
 20
5675428.77288666
 10
323497.941972534
 20
5675431.68229445
 10
323503.417213146
 20
5675430.55252442
 10
323503.417213146
 20
5675428.71289887
 10
323503.186329506
 20
5675427.57313086
 10
323497.3400259
 20
5675428.77288666
  0
LWPOLYLINE
  5
20145
  8
Gebaeude_Flaechen
100
AcDbEntity
100
AcDbPolyline
 70
0
 90
5
 62
7
370
0
 10
323280.358879094
 20
5675306.01787308
 10
323276.24420279
 20
5675306.01787308
 10
323276.672986694
 20
5675309.62713843
 10
323280.746433776
 20
5675309.07725036
 10
323280.358879094
 20
5675306.01787308
  0
LWPOLYLINE
  5
20146
  8
Gebaeude_Flaechen_DES_4300
100
AcDbEntity
100
AcDbPolyline
 70
0
 90
5
 62
7
370
0
 10
323374.147112117
 20
5675362.57636077
 10
323372.069159355
 20
5675356.27764285
 10
323367.31955304
 20
5675357.76733963
 10
323369.034688654
 20
5675364.04606161
 10
323374.147112117
 20
5675362.57636077
  0
LWPOLYLINE
  5
20147
  8
Gebaeude_Flaechen_DES_4300
100
AcDbEntity
100
AcDbPolyline
 70
0
 90
5
 62
7
370
0
 10
323441.490922483
 20
5675346.45964128
 10
323442.373227823
 20
5675350.97872143
 10
323448.532873512
 20
5675349.76896768
 10
323447.642322328
 20
5675345.24988752
 10
323441.490922483
 20
5675346.45964128
  0
LWPOLYLINE
  5
20148
  8
Gebaeude_Flaechen_DES_4300
100
AcDbEntity
100
AcDbPolyline
 70
0
 90
6
 62
7
370
0
 10
323398.472352791
 20
5675342.38047158
 10
323397.804439403
 20
5675340.1209315
 10
323392.312707102
 20
5675341.90056926
 10
323389.946149789
 20
5675342.67041257
 10
323390.605817332
 20
5675344.69999945
 10
323398.472352791
 20
5675342.38047158
  0
LWPOLYLINE
  5
20149
  8
Gebaeude_Flaechen_DES_4300
100
AcDbEntity
100
AcDbPolyline
 70
0
 90
8
 62
7
370
0
 10
323358.545974709
 20
5675358.9171056
 10
323360.475502274
 20
5675366.50556099
 10
323362.825567899
 20
5675365.83569734
 10
323364.491228447
 20
5675365.34579706
 10
323364.285082339
 20
5675364.5359619
 10
323362.850305432
 20
5675358.8871117
 10
323362.602930103
 20
5675357.89731317
 10
323358.545974709
 20
5675358.9171056
  0
LWPOLYLINE
  5
2014A
  8
Gebaeude_Flaechen_DES_4300
100
AcDbEntity
100
AcDbPolyline
 70
0
 90
5
 62
7
370
0
 10
323365.835301067
 20
5675358.13726433
 10
323362.850305432
 20
5675358.8871117
 10
323364.285082339
 20
5675364.5359619
 10
323367.26183213
 20
5675363.77611656
 10
323365.835301067
 20
5675358.13726433
  0
LWPOLYLINE
  5
2014B
  8
Gruenanlagen
100
AcDbEntity
100
AcDbPolyline
 70
0
 90
127
 62
7
370
0
 10
323421.709142017
 20
5675393.66003378
 10
323424.949758825
 20
5675398.26909561
 10
323428.281079921
 20
5675402.89815338
 10
323440.089128953
 20
5675394.58984451
 10
323440.369487659
 20
5675395.08974276
 10
323440.575633766
 20
5675395.38968171
 10
323440.790025718
 20
5675395.65962676
 10
323440.996171825
 20
5675395.87958199
 10
323441.276530531
 20
5675396.13952908
 10
323441.52390586
 20
5675396.33948838
 10
323441.837247944
 20
5675396.55944361
 10
323442.092869117
 20
5675396.71941105
 10
323442.323752757
 20
5675396.84938459
 10
323442.529898864
 20
5675396.94936424
 10
323442.834995103
 20
5675397.05934186
 10
323443.123599654
 20
5675397.11932965
 10
323443.412204204
 20
5675397.13932558
 10
323443.709054599
 20
5675397.12932761
 10
323443.948184083
 20
5675397.14932354
 10
323444.187313568
 20
5675397.14932354
 10
323444.418197208
 20
5675397.14932354
 10
323444.657326693
 20
5675397.13932558
 10
323444.896456177
 20
5675397.12932761
 10
323445.127339818
 20
5675397.09933372
 10
323445.349977614
 20
5675397.06933982
 10
323445.589107098
 20
5675397.02934796
 10
323445.819990739
 20
5675396.97935814
 10
323446.050874379
 20
5675396.92936831
 10
323446.273512175
 20
5675396.85938256
 10
323446.496149971
 20
5675396.7893968
 10
323446.727033611
 20
5675396.71941105
 10
323446.883704653
 20
5675396.62942936
 10
323447.056867383
 20
5675396.53944768
 10
323447.213538425
 20
5675396.43946803
 10
323447.370209466
 20
5675396.32949041
 10
323447.518634664
 20
5675396.2195128
 10
323447.667059861
 20
5675396.10953519
 10
323447.807239214
 20
5675395.97956164
 10
323447.947418567
 20
5675395.8495881
 10
323448.079352076
 20
5675395.71961455
 10
323448.20303974
 20
5675395.56964508
 10
323448.334973249
 20
5675395.42967357
 10
323448.442169225
 20
5675395.2797041
 10
323448.549365201
 20
5675395.12973462
 10
323448.656561176
 20
5675394.96976718
 10
323448.755511308
 20
5675394.80979974
 10
323448.846215595
 20
5675394.6498323
 10
323448.928674038
 20
5675394.46986894
 10
323449.002886637
 20
5675394.29990353
 10
323449.077099236
 20
5675394.12993813
 10
323449.14306599
 20
5675393.94997476
 10
323449.2007869
 20
5675393.78000935
 10
323449.250261966
 20
5675393.60004599
 10
323449.291491187
 20
5675393.42008262
 10
323449.332720409
 20
5675393.24011925
 10
323449.357457942
 20
5675393.04015995
 10
323449.37394963
 20
5675392.86019658
 10
323449.390441319
 20
5675392.67023525
 10
323449.398687163
 20
5675392.49027188
 10
323449.398687163
 20
5675392.30031054
 10
323449.390441319
 20
5675392.11034921
 10
323449.37394963
 20
5675391.93038584
 10
323449.357457942
 20
5675391.74042451
 10
323449.332720409
 20
5675391.55046317
 10
323447.172309203
 20
5675387.77123242
 10
323446.949671407
 20
5675387.50128737
 10
323446.727033611
 20
5675387.23134232
 10
323446.504395815
 20
5675386.96139726
 10
323446.265266331
 20
5675386.70145017
 10
323446.026136846
 20
5675386.45150105
 10
323445.787007361
 20
5675386.20155193
 10
323445.531386188
 20
5675385.96160077
 10
323445.275765015
 20
5675385.72164961
 10
323445.020143842
 20
5675385.49169642
 10
323444.756276824
 20
5675385.26174322
 10
323444.525393184
 20
5675385.13176968
 10
323444.302755388
 20
5675385.0117941
 10
323444.063625904
 20
5675384.89181852
 10
323443.824496419
 20
5675384.78184091
 10
323443.585366934
 20
5675384.68186126
 10
323443.337991605
 20
5675384.58188161
 10
323443.098862121
 20
5675384.49189992
 10
323442.851486792
 20
5675384.4119162
 10
323442.604111463
 20
5675384.34193045
 10
323442.34849029
 20
5675384.27194469
 10
323442.092869117
 20
5675384.2119569
 10
323441.837247944
 20
5675384.16196708
 10
323441.58162677
 20
5675384.11197726
 10
323441.342497286
 20
5675384.08198336
 10
323441.086876113
 20
5675384.05198947
 10
323440.839500784
 20
5675384.03199354
 10
323440.600371299
 20
5675384.02199557
 10
323440.35299597
 20
5675384.0119976
 10
323440.105620641
 20
5675384.0119976
 10
323439.858245313
 20
5675384.02199557
 10
323439.610869984
 20
5675384.03199354
 10
323439.363494655
 20
5675384.06198743
 10
323439.116119326
 20
5675384.08198336
 10
323438.876989841
 20
5675384.12197522
 10
323438.637860357
 20
5675384.16196708
 10
323438.390485028
 20
5675384.2119569
 10
323438.151355543
 20
5675384.27194469
 10
323437.805030083
 20
5675384.32193452
 10
323437.450458778
 20
5675384.36192638
 10
323437.112379162
 20
5675384.42191417
 10
323436.766053702
 20
5675384.49189992
 10
323436.419728241
 20
5675384.56188568
 10
323436.081648625
 20
5675384.6418694
 10
323435.735323165
 20
5675384.73185108
 10
323435.388997704
 20
5675384.82183277
 10
323435.059163932
 20
5675384.92181242
 10
323434.721084316
 20
5675385.02179206
 10
323434.391250544
 20
5675385.14176764
 10
323434.036679239
 20
5675385.26174322
 10
323433.690353779
 20
5675385.40171473
 10
323433.344028319
 20
5675385.54168624
 10
323432.997702858
 20
5675385.68165775
 10
323432.659623242
 20
5675385.84162519
 10
323432.321543626
 20
5675386.00159263
 10
323431.991709854
 20
5675386.17155803
 10
323431.653630238
 20
5675386.34152344
 10
323431.323796466
 20
5675386.52148681
 10
323431.002208539
 20
5675386.7214461
 10
323430.688866455
 20
5675386.91140744
 10
323430.375524372
 20
5675387.11136674
 10
323425.081692334
 20
5675391.11055272
 10
323421.709142017
 20
5675393.66003378
  0
LWPOLYLINE
  5
2014C
  8
Gruenanlagen
100
AcDbEntity
100
AcDbPolyline
 70
0
 90
19
 62
7
370
0
 10
323445.927186714
 20
5675416.82531855
 10
323460.167759814
 20
5675413.845925
 10
323459.532829803
 20
5675412.80613664
 10
323457.644531459
 20
5675409.55679804
 10
323455.591316229
 20
5675407.07730273
 10
323452.762991636
 20
5675405.92753676
 10
323450.000633797
 20
5675405.95753066
 10
323448.532873512
 20
5675406.43743297
 10
323448.631823644
 20
5675406.61739634
 10
323448.02987701
 20
5675406.93733122
 10
323447.452667909
 20
5675407.32725185
 10
323446.924933874
 20
5675407.76716231
 10
323446.413691528
 20
5675408.28705649
 10
323445.960170092
 20
5675408.86693845
 10
323445.57261541
 20
5675409.48681228
 10
323445.251027482
 20
5675410.14667797
 10
323444.995406309
 20
5675410.83653755
 10
323444.822243579
 20
5675411.54639306
 10
323445.927186714
 20
5675416.82531855
  0
POINT
  5
2014D
  8
Adressen
100
AcDbEntity
100
AcDbPoint
 10
323357.234885466
 20
5675348.4792302
  0
POINT
  5
2014E
  8
Adressen
100
AcDbEntity
100
AcDbPoint
 10
323409.793897009
 20
5675450.15853367
  0
POINT
  5
2014F
  8
Adressen
100
AcDbEntity
100
AcDbPoint
 10
323386.491141028
 20
5675400.68860313
  0
POINT
  5
20150
  8
Adressen
100
AcDbEntity
100
AcDbPoint
 10
323390.036854076
 20
5675397.97915463
  0
POINT
  5
20151
  8
Adressen
100
AcDbEntity
100
AcDbPoint
 10
323325.636810124
 20
5675463.50581687
  0
POINT
  5
20152
  8
Adressen
100
AcDbEntity
100
AcDbPoint
 10
323476.700677627
 20
5675468.7447505
  0
POINT
  5
20153
  8
Adressen
100
AcDbEntity
100
AcDbPoint
 10
323479.710410795
 20
5675407.56720301
  0
POINT
  5
20154
  8
Adressen
100
AcDbEntity
100
AcDbPoint
 10
323330.526595791
 20
5675453.30789263
  0
POINT
  5
20155
  8
Adressen
100
AcDbEntity
100
AcDbPoint
 10
323397.614784984
 20
5675386.96139726
  0
POINT
  5
20156
  8
Adressen
100
AcDbEntity
100
AcDbPoint
 10
323419.96926887
 20
5675346.55962093
  0
POINT
  5
20157
  8
Adressen
100
AcDbEntity
100
AcDbPoint
 10
323354.868328153
 20
5675342.78039018
  0
POINT
  5
20158
  8
Adressen
100
AcDbEntity
100
AcDbPoint
 10
323320.52438666
 20
5675470.32442896
  0
POINT
  5
20159
  8
Adressen
100
AcDbEntity
100
AcDbPoint
 10
323420.183660822
 20
5675354.25805393
  0
POINT
  5
2015A
  8
Adressen
100
AcDbEntity
100
AcDbPoint
 10
323372.184601175
 20
5675336.89158883
  0
POINT
  5
2015B
  8
Adressen
100
AcDbEntity
100
AcDbPoint
 10
323384.660563595
 20
5675355.58778327
  0
POINT
  5
2015C
  8
Adressen
100
AcDbEntity
100
AcDbPoint
 10
323326.741753259
 20
5675461.16629307
  0
POINT
  5
2015D
  8
Adressen
100
AcDbEntity
100
AcDbPoint
 10
323465.255445744
 20
5675355.11787892
  0
POINT
  5
2015E
  8
Adressen
100
AcDbEntity
100
AcDbPoint
 10
323447.08985076
 20
5675358.76713612
  0
POINT
  5
2015F
  8
Adressen
100
AcDbEntity
100
AcDbPoint
 10
323501.528914803
 20
5675343.8001826
  0
POINT
  5
20160
  8
Adressen
100
AcDbEntity
100
AcDbPoint
 10
323453.447396712
 20
5675357.50739254
  0
POINT
  5
20161
  8
Adressen
100
AcDbEntity
100
AcDbPoint
 10
323324.911175826
 20
5675320.13499958
  0
POINT
  5
20162
  8
Adressen
100
AcDbEntity
100
AcDbPoint
 10
323380.669574955
 20
5675367.33539208
  0
POINT
  5
20163
  8
Adressen
100
AcDbEntity
100
AcDbPoint
 10
323381.428192631
 20
5675466.33524095
  0
POINT
  5
20164
  8
Adressen
100
AcDbEntity
100
AcDbPoint
 10
323369.438735024
 20
5675318.25538217
  0
POINT
  5
20165
  8
Adressen
100
AcDbEntity
100
AcDbPoint
 10
323459.301946163
 20
5675356.36762454
  0
POINT
  5
20166
  8
Adressen
100
AcDbEntity
100
AcDbPoint
 10
323420.422790307
 20
5675362.55636484
  0
POINT
  5
20167
  8
Adressen
100
AcDbEntity
100
AcDbPoint
 10
323371.640375451
 20
5675344.2001012
  0
POINT
  5
20168
  8
Adressen
100
AcDbEntity
100
AcDbPoint
 10
323487.255358326
 20
5675406.06750827
  0
POINT
  5
20169
  8
Adressen
100
AcDbEntity
100
AcDbPoint
 10
323362.561700881
 20
5675344.18010527
  0
POINT
  5
2016A
  8
Adressen
100
AcDbEntity
100
AcDbPoint
 10
323397.317934589
 20
5675354.42801934
  0
POINT
  5
2016B
  8
Adressen
100
AcDbEntity
100
AcDbPoint
 10
323394.654526882
 20
5675316.06582785
  0
POINT
  5
2016C
  8
Adressen
100
AcDbEntity
100
AcDbPoint
 10
323434.135629371
 20
5675314.92605985
  0
POINT
  5
2016D
  8
Adressen
100
AcDbEntity
100
AcDbPoint
 10
323419.721893542
 20
5675338.06135073
  0
POINT
  5
2016E
  8
Adressen
100
AcDbEntity
100
AcDbPoint
 10
323459.425633827
 20
5675423.01405885
  0
POINT
  5
2016F
  8
Adressen
100
AcDbEntity
100
AcDbPoint
 10
323495.295056515
 20
5675404.53781963
  0
POINT
  5
20170
  8
Flurstuecke
100
AcDbEntity
100
AcDbPoint
 10
323455.805708181
 20
5675339.13113298
  0
POINT
  5
20171
  8
Flurstuecke
100
AcDbEntity
100
AcDbPoint
 10
323463.993831567
 20
5675340.76080126
  0
POINT
  5
20172
  8
Flurstuecke
100
AcDbEntity
100
AcDbPoint
 10
323442.703061595
 20
5675337.97136904
  0
POINT
  5
20173
  8
Flurstuecke
100
AcDbEntity
100
AcDbPoint
 10
323485.160913875
 20
5675480.43237152
  0
POINT
  5
20174
  8
Flurstuecke
100
AcDbEntity
100
AcDbPoint
 10
323489.275590179
 20
5675448.31890812
  0
POINT
  5
20175
  8
Flurstuecke
100
AcDbEntity
100
AcDbPoint
 10
323457.289960154
 20
5675476.24322421
  0
POINT
  5
20176
  8
Flurstuecke
100
AcDbEntity
100
AcDbPoint
 10
323420.026989781
 20
5675425.13362742
  0
POINT
  5
20177
  8
Flurstuecke
100
AcDbEntity
100
AcDbPoint
 10
323414.749649431
 20
5675480.07244478
  0
POINT
  5
20178
  8
Flurstuecke
100
AcDbEntity
100
AcDbPoint
 10
323439.9489496
 20
5675425.65352159
  0
POINT
  5
20179
  8
Flurstuecke
100
AcDbEntity
100
AcDbPoint
 10
323411.805883017
 20
5675360.18684715
  0
POINT
  5
2017A
  8
Flurstuecke
100
AcDbEntity
100
AcDbPoint
 10
323479.512510532
 20
5675432.44213979
  0
POINT
  5
2017B
  8
Flurstuecke
100
AcDbEntity
100
AcDbPoint
 10
323470.351377519
 20
5675389.68084373
  0
POINT
  5
2017C
  8
Flurstuecke
100
AcDbEntity
100
AcDbPoint
 10
323476.453302298
 20
5675423.29400187
  0
POINT
  5
2017D
  8
Flurstuecke
100
AcDbEntity
100
AcDbPoint
 10
323473.715681992
 20
5675327.01359946
  0
POINT
  5
2017E
  8
Flurstuecke
100
AcDbEntity
100
AcDbPoint
 10
323370.213844388
 20
5675483.90166535
  0
POINT
  5
2017F
  8
Flurstuecke
100
AcDbEntity
100
AcDbPoint
 10
323491.122659301
 20
5675385.71165165
  0
POINT
  5
20180
  8
Flurstuecke
100
AcDbEntity
100
AcDbPoint
 10
323451.567344213
 20
5675410.39662709
  0
POINT
  5
20181
  8
Flurstuecke
100
AcDbEntity
100
AcDbPoint
 10
323498.931473849
 20
5675384.20195894
  0
POINT
  5
20182
  8
Flurstuecke
100
AcDbEntity
100
AcDbPoint
 10
323483.256123843
 20
5675387.19135046
  0
POINT
  5
20183
  8
Flurstuecke
100
AcDbEntity
100
AcDbPoint
 10
323427.926508616
 20
5675367.88528015
  0
POINT
  5
20184
  8
Flurstuecke
100
AcDbEntity
100
AcDbPoint
 10
323406.182217207
 20
5675395.97956164
  0
POINT
  5
20185
  8
Flurstuecke
100
AcDbEntity
100
AcDbPoint
 10
323500.597134397
 20
5675422.83409548
  0
POINT
  5
20186
  8
Flurstuecke
100
AcDbEntity
100
AcDbPoint
 10
323419.268372105
 20
5675403.7779743
  0
POINT
  5
20187
  8
Flurstuecke
100
AcDbEntity
100
AcDbPoint
 10
323425.980489362
 20
5675410.3666332
  0
POINT
  5
20188
  8
Flurstuecke
100
AcDbEntity
100
AcDbPoint
 10
323431.562925951
 20
5675343.61022127
  0
POINT
  5
20189
  8
Flurstuecke
100
AcDbEntity
100
AcDbPoint
 10
323429.897265403
 20
5675418.22503364
  0
POINT
  5
2018A
  8
Flurstuecke
100
AcDbEntity
100
AcDbPoint
 10
323437.219575138
 20
5675365.90568309
  0
POINT
  5
2018B
  8
Flurstuecke
100
AcDbEntity
100
AcDbPoint
 10
323437.285541892
 20
5675441.04038964
  0
POINT
  5
2018C
  8
Flurstuecke
100
AcDbEntity
100
AcDbPoint
 10
323500.019925296
 20
5675419.97467751
  0
POINT
  5
2018D
  8
Flurstuecke
100
AcDbEntity
100
AcDbPoint
 10
323450.124321461
 20
5675340.21091319
  0
POINT
  5
2018E
  8
Flurstuecke
100
AcDbEntity
100
AcDbPoint
 10
323431.33204231
 20
5675335.57185746
  0
POINT
  5
2018F
  8
Flurstuecke
100
AcDbEntity
100
AcDbPoint
 10
323444.187313568
 20
5675415.32562381
  0
POINT
  5
20190
  8
Flurstuecke
100
AcDbEntity
100
AcDbPoint
 10
323434.127383527
 20
5675393.19012942
  0
POINT
  5
20191
  8
Flurstuecke
100
AcDbEntity
100
AcDbPoint
 10
323431.736088681
 20
5675394.86978753
  0
POINT
  5
20192
  8
Flurstuecke
100
AcDbEntity
100
AcDbPoint
 10
323423.07795217
 20
5675368.9550624
  0
POINT
  5
20193
  8
Flurstuecke
100
AcDbEntity
100
AcDbPoint
 10
323432.841031817
 20
5675354.15807428
  0
POINT
  5
20194
  8
Flurstuecke
100
AcDbEntity
100
AcDbPoint
 10
323436.55166175
 20
5675343.44025587
  0
POINT
  5
20195
  8
Flurstuecke
100
AcDbEntity
100
AcDbPoint
 10
323425.403280262
 20
5675407.46722336
  0
POINT
  5
20196
  8
Flurstuecke
100
AcDbEntity
100
AcDbPoint
 10
323427.077186654
 20
5675398.31908544
  0
POINT
  5
20197
  8
Flurstuecke
100
AcDbEntity
100
AcDbPoint
 10
323436.386744864
 20
5675391.54046521
  0
POINT
  5
20198
  8
Flurstuecke
100
AcDbEntity
100
AcDbPoint
 10
323424.768350251
 20
5675404.63779928
  0
POINT
  5
20199
  8
Flurstuecke
100
AcDbEntity
100
AcDbPoint
 10
323441.46618495
 20
5675415.80552612
  0
POINT
  5
2019A
  8
Flurstuecke
100
AcDbEntity
100
AcDbPoint
 10
323438.481189315
 20
5675416.48538774
  0
POINT
  5
2019B
  8
Flurstuecke
100
AcDbEntity
100
AcDbPoint
 10
323493.291316351
 20
5675425.69351345
  0
POINT
  5
2019C
  8
Flurstuecke
100
AcDbEntity
100
AcDbPoint
 10
323437.087641629
 20
5675352.81834698
  0
POINT
  5
2019D
  8
Flurstuecke
100
AcDbEntity
100
AcDbPoint
 10
323429.394268901
 20
5675396.54944564
  0
POINT
  5
2019E
  8
Flurstuecke
100
AcDbEntity
100
AcDbPoint
 10
323437.095887473
 20
5675329.05318431
  0
POINT
  5
2019F
  8
Flurstuecke
100
AcDbEntity
100
AcDbPoint
 10
323468.99081321
 20
5675308.38739078
  0
POINT
  5
201A0
  8
Flurstuecke
100
AcDbEntity
100
AcDbPoint
 10
323501.710323377
 20
5675428.76288869
  0
POINT
  5
201A1
  8
Flurstuecke
100
AcDbEntity
100
AcDbPoint
 10
323501.108376744
 20
5675425.75350124
  0
POINT
  5
201A2
  8
Flurstuecke
100
AcDbEntity
100
AcDbPoint
 10
323438.909973218
 20
5675404.64779725
  0
POINT
  5
201A3
  8
Flurstuecke
100
AcDbEntity
100
AcDbPoint
 10
323448.236023117
 20
5675451.02835662
  0
POINT
  5
201A4
  8
Flurstuecke
100
AcDbEntity
100
AcDbPoint
 10
323435.6116355
 20
5675417.00528192
  0
POINT
  5
201A5
  8
Flurstuecke
100
AcDbEntity
100
AcDbPoint
 10
323426.516469242
 20
5675413.22605117
  0
POINT
  5
201A6
  8
Flurstuecke
100
AcDbEntity
100
AcDbPoint
 10
323290.501267578
 20
5675477.96287418
  0
POINT
  5
201A7
  8
Flurstuecke
100
AcDbEntity
100
AcDbPoint
 10
323348.939566104
 20
5675346.23968605
  0
POINT
  5
201A8
  8
Flurstuecke
100
AcDbEntity
100
AcDbPoint
 10
323385.551114779
 20
5675342.13052246
  0
POINT
  5
201A9
  8
Flurstuecke
100
AcDbEntity
100
AcDbPoint
 10
323359.551967713
 20
5675356.16766524
  0
POINT
  5
201AA
  8
Flurstuecke
100
AcDbEntity
100
AcDbPoint
 10
323304.849036653
 20
5675464.05570494
  0
POINT
  5
201AB
  8
Flurstuecke
100
AcDbEntity
100
AcDbPoint
 10
323352.056495248
 20
5675358.46719718
  0
POINT
  5
201AC
  8
Flurstuecke
100
AcDbEntity
100
AcDbPoint
 10
323369.37276827
 20
5675370.38477139
  0
POINT
  5
201AD
  8
Flurstuecke
100
AcDbEntity
100
AcDbPoint
 10
323356.245384151
 20
5675396.55944361
  0
POINT
  5
201AE
  8
Flurstuecke
100
AcDbEntity
100
AcDbPoint
 10
323364.417015848
 20
5675355.32783618
  0
POINT
  5
201AF
  8
Flurstuecke
100
AcDbEntity
100
AcDbPoint
 10
323339.588778673
 20
5675361.76652561
  0
POINT
  5
201B0
  8
Flurstuecke
100
AcDbEntity
100
AcDbPoint
 10
323372.59689339
 20
5675403.26807809
  0
POINT
  5
201B1
  8
Flurstuecke
100
AcDbEntity
100
AcDbPoint
 10
323357.01224767
 20
5675325.87383146
  0
POINT
  5
201B2
  8
Flurstuecke
100
AcDbEntity
100
AcDbPoint
 10
323396.204745609
 20
5675371.94445392
  0
POINT
  5
201B3
  8
Flurstuecke
100
AcDbEntity
100
AcDbPoint
 10
323303.810060272
 20
5675343.07033116
  0
POINT
  5
201B4
  8
Flurstuecke
100
AcDbEntity
100
AcDbPoint
 10
323308.708091784
 20
5675456.15731264
  0
POINT
  5
201B5
  8
Flurstuecke
100
AcDbEntity
100
AcDbPoint
 10
323395.190506761
 20
5675327.76344683
  0
POINT
  5
201B6
  8
Flurstuecke
100
AcDbEntity
100
AcDbPoint
 10
323351.50402368
 20
5675387.25133825
  0
POINT
  5
201B7
  8
Flurstuecke
100
AcDbEntity
100
AcDbPoint
 10
323363.229614269
 20
5675351.06870312
  0
POINT
  5
201B8
  8
Flurstuecke
100
AcDbEntity
100
AcDbPoint
 10
323402.793175202
 20
5675364.68593137
  0
POINT
  5
201B9
  8
Flurstuecke
100
AcDbEntity
100
AcDbPoint
 10
323348.255161028
 20
5675379.88283808
  0
POINT
  5
201BA
  8
Flurstuecke
100
AcDbEntity
100
AcDbPoint
 10
323401.58103609
 20
5675354.98790538
  0
POINT
  5
201BB
  8
Flurstuecke
100
AcDbEntity
100
AcDbPoint
 10
323391.026355391
 20
5675316.57572406
  0
POINT
  5
201BC
  8
Flurstuecke
100
AcDbEntity
100
AcDbPoint
 10
323311.264303516
 20
5675451.13833423
  0
POINT
  5
201BD
  8
Flurstuecke
100
AcDbEntity
100
AcDbPoint
 10
323369.051180342
 20
5675354.42801934
  0
POINT
  5
201BE
  8
Flurstuecke
100
AcDbEntity
100
AcDbPoint
 10
323357.086460269
 20
5675352.9283246
  0
POINT
  5
201BF
  8
Flurstuecke
100
AcDbEntity
100
AcDbPoint
 10
323314.356495127
 20
5675444.74963463
  0
POINT
  5
201C0
  8
Flurstuecke
100
AcDbEntity
100
AcDbPoint
 10
323344.973314998
 20
5675372.88426262
  0
POINT
  5
201C1
  8
Flurstuecke
100
AcDbEntity
100
AcDbPoint
 10
323320.400698996
 20
5675311.41677415
  0
POINT
  5
201C2
  8
Flurstuecke
100
AcDbEntity
100
AcDbPoint
 10
323330.905904629
 20
5675437.09119349
  0
POINT
  5
201C3
  8
Flurstuecke
100
AcDbEntity
100
AcDbPoint
 10
323299.250108376
 20
5675376.62350151
  0
POINT
  5
201C4
  8
Flurstuecke
100
AcDbEntity
100
AcDbPoint
 10
323346.886350875
 20
5675415.50558718
  0
POINT
  5
201C5
  8
Flurstuecke
100
AcDbEntity
100
AcDbPoint
 10
323275.699977067
 20
5675394.54985266
  0
POINT
  5
201C6
  8
Flurstuecke
100
AcDbEntity
100
AcDbPoint
 10
323317.35798245
 20
5675422.27420944
  0
ENDSEC
  0
SECTION
  2
OBJECTS
  0
DICTIONARY
  5
C
330
0
100
AcDbDictionary
281
     1
  3
ACAD_GROUP
350
D
  3
ACAD_LAYOUT
350
1A
  3
ACAD_MLEADERSTYLE
350
43
  3
ACAD_MLINESTYLE
350
17
  3
ACAD_PLOTSETTINGS
350
19
  3
ACAD_PLOTSTYLENAME
350
E
  3
ACAD_TABLESTYLE
350
42
  3
ACAD_VISUALSTYLE
350
2A
  0
DICTIONARY
  5
D
102
{ACAD_REACTORS
330
C
102
}
330
C
100
AcDbDictionary
281
     1
  0
DICTIONARY
  5
1A
102
{ACAD_REACTORS
330
C
102
}
330
C
100
AcDbDictionary
281
     1
  3
Layout1
350
1E
  3
Layout2
350
26
  3
Model
350
22
  0
DICTIONARY
  5
43
102
{ACAD_REACTORS
330
C
102
}
330
C
100
AcDbDictionary
281
     1
  0
DICTIONARY
  5
17
102
{ACAD_REACTORS
330
C
102
}
330
C
100
AcDbDictionary
281
     1
  3
Standard
350
18
  0
DICTIONARY
  5
19
102
{ACAD_REACTORS
330
C
102
}
330
C
100
AcDbDictionary
281
     1
  0
ACDBDICTIONARYWDFLT
  5
E
102
{ACAD_REACTORS
330
C
102
}
330
C
100
AcDbDictionary
281
     1
  3
Normal
350
F
100
AcDbDictionaryWithDefault
340
F
  0
DICTIONARY
  5
42
102
{ACAD_REACTORS
330
C
102
}
330
C
100
AcDbDictionary
281
     1
  0
DICTIONARY
  5
2A
102
{ACAD_REACTORS
330
C
102
}
330
C
100
AcDbDictionary
281
     1
  3
2dWireframe
350
2F
  3
3D Hidden
350
31
  3
3dWireframe
350
30
  3
Basic
350
32
  3
Brighten
350
36
  3
ColorChange
350
3A
  3
Conceptual
350
34
  3
Dim
350
35
  3
Facepattern
350
39
  3
Flat
350
2B
  3
FlatWithEdges
350
2C
  3
Gouraud
350
2D
  3
GouraudWithEdges
350
2E
  3
Linepattern
350
38
  3
Realistic
350
33
  3
Thicken
350
37
  0
LAYOUT
  5
1E
102
{ACAD_REACTORS
330
1A
102
}
330
1A
100
AcDbPlotSettings
  1

  2
none_device
  4

  6

 40
0.0
 41
0.0
 42
0.0
 43
0.0
 44
0.0
 45
0.0
 46
0.0
 47
0.0
 48
0.0
 49
0.0
140
0.0
141
0.0
142
1.0
143
1.0
 70
   688
 72
     0
 73
     0
 74
     5
  7

 75
    16
 76
     0
 77
     2
 78
   300
147
1.0
148
0.0
149
0.0
100
AcDbLayout
  1
Layout1
 70
     1
 71
     1
 10
0.0
 20
0.0
 11
12.0
 21
9.0
 12
0.0
 22
0.0
 32
0.0
 14
1.000000000000000E+20
 24
1.000000000000000E+20
 34
1.000000000000000E+20
 15
-1.000000000000000E+20
 25
-1.000000000000000E+20
 35
-1.000000000000000E+20
146
0.0
 13
0.0
 23
0.0
 33
0.0
 16
1.0
 26
0.0
 36
0.0
 17
0.0
 27
1.0
 37
0.0
 76
     0
330
1B
  0
LAYOUT
  5
26
102
{ACAD_REACTORS
330
1A
102
}
330
1A
100
AcDbPlotSettings
  1

  2
none_device
  4

  6

 40
0.0
 41
0.0
 42
0.0
 43
0.0
 44
0.0
 45
0.0
 46
0.0
 47
0.0
 48
0.0
 49
0.0
140
0.0
141
0.0
142
1.0
143
1.0
 70
   688
 72
     0
 73
     0
 74
     5
  7

 75
    16
 76
     0
 77
     2
 78
   300
147
1.0
148
0.0
149
0.0
100
AcDbLayout
  1
Layout2
 70
     1
 71
     2
 10
0.0
 20
0.0
 11
0.0
 21
0.0
 12
0.0
 22
0.0
 32
0.0
 14
0.0
 24
0.0
 34
0.0
 15
0.0
 25
0.0
 35
0.0
146
0.0
 13
0.0
 23
0.0
 33
0.0
 16
1.0
 26
0.0
 36
0.0
 17
0.0
 27
1.0
 37
0.0
 76
     0
330
23
  0
LAYOUT
  5
22
102
{ACAD_REACTORS
330
1A
102
}
330
1A
100
AcDbPlotSettings
  1

  2
none_device
  4

  6

 40
0.0
 41
0.0
 42
0.0
 43
0.0
 44
0.0
 45
0.0
 46
0.0
 47
0.0
 48
0.0
 49
0.0
140
0.0
141
0.0
142
1.0
143
1.0
 70
  1712
 72
     0
 73
     0
 74
     0
  7

 75
     0
 76
     0
 77
     2
 78
   300
147
1.0
148
0.0
149
0.0
100
AcDbLayout
  1
Model
 70
     1
 71
     0
 10
0.0
 20
0.0
 11
12.0
 21
9.0
 12
0.0
 22
0.0
 32
0.0
 14
30.0
 24
49.75
 34
0.0
 15
130.5
 25
163.1318914119703
 35
0.0
146
0.0
 13
0.0
 23
0.0
 33
0.0
 16
1.0
 26
0.0
 36
0.0
 17
0.0
 27
1.0
 37
0.0
 76
     0
330
1F
331
29
  0
MLINESTYLE
  5
18
102
{ACAD_REACTORS
330
17
102
}
330
17
100
AcDbMlineStyle
  2
Standard
 70
     0
  3

 62
   256
 51
90.0
 52
90.0
 71
     2
 49
0.5
 62
   256
  6
BYLAYER
 49
-0.5
 62
   256
  6
BYLAYER
  0
ACDBPLACEHOLDER
  5
F
102
{ACAD_REACTORS
330
E
102
}
330
E
  0
VISUALSTYLE
  5
2F
102
{ACAD_REACTORS
330
2A
102
}
330
2A
100
AcDbVisualStyle
  2
2dWireframe
 70
     4
 71
     0
 72
     2
 73
     0
 90
        0
 40
-0.6
 41
-30.0
 62
     5
 63
     7
421
 16777215
 74
     1
 91
        4
 64
     7
 65
   257
 75
     1
175
     1
 42
1.0
 92
        0
 66
   257
 43
1.0
 76
     1
 77
     6
 78
     2
 67
     7
 79
     5
170
     0
171
     0
290
     0
174
     0
 93
        1
 44
0.0
173
     0
291
     0
 45
0.0
1001
ACAD
1000
AcDbSavedByObjectVersion
1070
     0
  0
VISUALSTYLE
  5
31
102
{ACAD_REACTORS
330
2A
102
}
330
2A
100
AcDbVisualStyle
  2
3D Hidden
 70
     6
 71
     1
 72
     2
 73
     2
 90
        0
 40
-0.6
 41
-30.0
 62
     5
 63
     7
421
 16777215
 74
     2
 91
        2
 64
     7
 65
   257
 75
     2
175
     1
 42
40.0
 92
        0
 66
   257
 43
1.0
 76
     1
 77
     6
 78
     2
 67
     7
 79
     3
170
     0
171
     0
290
     0
174
     0
 93
        1
 44
0.0
173
     0
291
     0
 45
0.0
1001
ACAD
1000
AcDbSavedByObjectVersion
1070
     0
  0
VISUALSTYLE
  5
30
102
{ACAD_REACTORS
330
2A
102
}
330
2A
100
AcDbVisualStyle
  2
3dWireframe
 70
     5
 71
     0
 72
     2
 73
     0
 90
        0
 40
-0.6
 41
-30.0
 62
     5
 63
     7
421
 16777215
 74
     1
 91
        4
 64
     7
 65
   257
 75
     1
175
     1
 42
1.0
 92
        0
 66
   257
 43
1.0
 76
     1
 77
     6
 78
     2
 67
     7
 79
     5
170
     0
171
     0
290
     0
174
     0
 93
        1
 44
0.0
173
     0
291
     0
 45
0.0
1001
ACAD
1000
AcDbSavedByObjectVersion
1070
     0
  0
VISUALSTYLE
  5
32
102
{ACAD_REACTORS
330
2A
102
}
330
2A
100
AcDbVisualStyle
  2
Basic
 70
     7
 71
     1
 72
     0
 73
     1
 90
        0
 40
-0.6
 41
-30.0
 62
     5
 63
     7
421
 16777215
 74
     0
 91
        4
 64
     7
 65
   257
 75
     1
175
     1
 42
1.0
 92
        8
 66
     7
 43
1.0
 76
     1
 77
     6
 78
     2
 67
     7
 79
     5
170
     0
171
     0
290
     0
174
     0
 93
        1
 44
0.0
173
     0
291
     1
 45
0.0
1001
ACAD
1000
AcDbSavedByObjectVersion
1070
     0
  0
VISUALSTYLE
  5
36
102
{ACAD_REACTORS
330
2A
102
}
330
2A
100
AcDbVisualStyle
  2
Brighten
 70
    12
 71
     2
 72
     2
 73
     0
 90
        0
 40
-0.6
 41
-30.0
 62
     5
 63
     7
421
 16777215
 74
     1
 91
        4
 64
     7
 65
   257
 75
     1
175
     1
 42
1.0
 92
        8
 66
     7
 43
1.0
 76
     1
 77
     6
 78
     2
 67
     7
 79
     5
170
     0
171
     0
290
     0
174
     0
 93
        1
 44
50.0
173
     0
291
     1
 45
0.0
1001
ACAD
1000
AcDbSavedByObjectVersion
1070
     0
  0
VISUALSTYLE
  5
3A
102
{ACAD_REACTORS
330
2A
102
}
330
2A
100
AcDbVisualStyle
  2
ColorChange
 70
    16
 71
     2
 72
     2
 73
     3
 90
        0
 40
-0.6
 41
-30.0
 62
     5
 63
     8
421
  8421504
 74
     1
 91
        4
 64
     7
 65
   257
 75
     1
175
     1
 42
1.0
 92
        8
 66
     8
424
  8421504
 43
1.0
 76
     1
 77
     6
 78
     2
 67
     7
 79
     5
170
     0
171
     0
290
     0
174
     0
 93
        1
 44
0.0
173
     0
291
     1
 45
0.0
1001
ACAD
1000
AcDbSavedByObjectVersion
1070
     0
  0
VISUALSTYLE
  5
34
102
{ACAD_REACTORS
330
2A
102
}
330
2A
100
AcDbVisualStyle
  2
Conceptual
 70
     9
 71
     3
 72
     2
 73
     0
 90
        0
 40
-0.6
 41
-30.0
 62
     5
 63
     7
421
 16777215
 74
     2
 91
        2
 64
     7
 65
   257
 75
     1
175
     1
 42
40.0
 92
        8
 66
     7
 43
1.0
 76
     1
 77
     6
 78
     2
 67
     7
 79
     3
170
     0
171
     0
290
     0
174
     0
 93
        1
 44
0.0
173
     0
291
     0
 45
0.0
1001
ACAD
1000
AcDbSavedByObjectVersion
1070
     0
  0
VISUALSTYLE
  5
35
102
{ACAD_REACTORS
330
2A
102
}
330
2A
100
AcDbVisualStyle
  2
Dim
 70
    11
 71
     2
 72
     2
 73
     0
 90
        0
 40
-0.6
 41
-30.0
 62
     5
 63
     7
421
 16777215
 74
     1
 91
        4
 64
     7
 65
   257
 75
     1
175
     1
 42
1.0
 92
        8
 66
     7
 43
1.0
 76
     1
 77
     6
 78
     2
 67
     7
 79
     5
170
     0
171
     0
290
     0
174
     0
 93
        1
 44
-50.0
173
     0
291
     1
 45
0.0
1001
ACAD
1000
AcDbSavedByObjectVersion
1070
     0
  0
VISUALSTYLE
  5
39
102
{ACAD_REACTORS
330
2A
102
}
330
2A
100
AcDbVisualStyle
  2
Facepattern
 70
    15
 71
     2
 72
     2
 73
     0
 90
        0
 40
-0.6
 41
-30.0
 62
     5
 63
     7
421
 16777215
 74
     1
 91
        4
 64
     7
 65
   257
 75
     1
175
     1
 42
1.0
 92
        8
 66
     7
 43
1.0
 76
     1
 77
     6
 78
     2
 67
     7
 79
     5
170
     0
171
     0
290
     0
174
     0
 93
        1
 44
0.0
173
     0
291
     1
 45
0.0
1001
ACAD
1000
AcDbSavedByObjectVersion
1070
     0
  0
VISUALSTYLE
  5
2B
102
{ACAD_REACTORS
330
2A
102
}
330
2A
100
AcDbVisualStyle
  2
Flat
 70
     0
 71
     2
 72
     1
 73
     1
 90
        2
 40
-0.6
 41
30.0
 62
     5
 63
     7
421
 16777215
 74
     0
 91
        4
 64
     7
 65
   257
 75
     1
175
     1
 42
1.0
 92
        8
 66
     7
 43
1.0
 76
     1
 77
     6
 78
     2
 67
     7
 79
     5
170
     0
171
     0
290
     0
174
     0
 93
       13
 44
0.0
173
     0
291
     1
 45
0.0
1001
ACAD
1000
AcDbSavedByObjectVersion
1070
     0
  0
VISUALSTYLE
  5
2C
102
{ACAD_REACTORS
330
2A
102
}
330
2A
100
AcDbVisualStyle
  2
FlatWithEdges
 70
     1
 71
     2
 72
     1
 73
     1
 90
        2
 40
-0.6
 41
30.0
 62
     5
 63
     7
421
 16777215
 74
     1
 91
        4
 64
     7
 65
   257
 75
     1
175
     1
 42
1.0
 92
        0
 66
   257
 43
1.0
 76
     1
 77
     6
 78
     2
 67
     7
 79
     5
170
     0
171
     0
290
     0
174
     0
 93
       13
 44
0.0
173
     0
291
     1
 45
0.0
1001
ACAD
1000
AcDbSavedByObjectVersion
1070
     0
  0
VISUALSTYLE
  5
2D
102
{ACAD_REACTORS
330
2A
102
}
330
2A
100
AcDbVisualStyle
  2
Gouraud
 70
     2
 71
     2
 72
     2
 73
     1
 90
        2
 40
-0.6
 41
30.0
 62
     5
 63
     7
421
 16777215
 74
     0
 91
        4
 64
     7
 65
   257
 75
     1
175
     1
 42
1.0
 92
        0
 66
     7
 43
1.0
 76
     1
 77
     6
 78
     2
 67
     7
 79
     5
170
     0
171
     0
290
     0
174
     0
 93
       13
 44
0.0
173
     0
291
     1
 45
0.0
1001
ACAD
1000
AcDbSavedByObjectVersion
1070
     0
  0
VISUALSTYLE
  5
2E
102
{ACAD_REACTORS
330
2A
102
}
330
2A
100
AcDbVisualStyle
  2
GouraudWithEdges
 70
     3
 71
     2
 72
     2
 73
     1
 90
        2
 40
-0.6
 41
30.0
 62
     5
 63
     7
421
 16777215
 74
     1
 91
        4
 64
     7
 65
   257
 75
     1
175
     1
 42
1.0
 92
        0
 66
   257
 43
1.0
 76
     1
 77
     6
 78
     2
 67
     7
 79
     5
170
     0
171
     0
290
     0
174
     0
 93
       13
 44
0.0
173
     0
291
     1
 45
0.0
1001
ACAD
1000
AcDbSavedByObjectVersion
1070
     0
  0
VISUALSTYLE
  5
38
102
{ACAD_REACTORS
330
2A
102
}
330
2A
100
AcDbVisualStyle
  2
Linepattern
 70
    14
 71
     2
 72
     2
 73
     0
 90
        0
 40
-0.6
 41
-30.0
 62
     5
 63
     7
421
 16777215
 74
     1
 91
        4
 64
     7
 65
   257
 75
     7
175
     7
 42
1.0
 92
        8
 66
     7
 43
1.0
 76
     1
 77
     6
 78
     2
 67
     7
 79
     5
170
     0
171
     0
290
     0
174
     0
 93
        1
 44
0.0
173
     0
291
     1
 45
0.0
1001
ACAD
1000
AcDbSavedByObjectVersion
1070
     0
  0
VISUALSTYLE
  5
33
102
{ACAD_REACTORS
330
2A
102
}
330
2A
100
AcDbVisualStyle
  2
Realistic
 70
     8
 71
     2
 72
     2
 73
     0
 90
        0
 40
-0.6
 41
-30.0
 62
     5
 63
     7
421
 16777215
 74
     1
 91
        0
 64
     7
 65
   257
 75
     1
175
     1
 42
1.0
 92
        8
 66
     8
424
  7895160
 43
1.0
 76
     1
 77
     6
 78
     2
 67
     7
 79
     5
170
     0
171
     0
290
     0
174
     0
 93
       13
 44
0.0
173
     0
291
     0
 45
0.0
1001
ACAD
1000
AcDbSavedByObjectVersion
1070
     0
  0
VISUALSTYLE
  5
37
102
{ACAD_REACTORS
330
2A
102
}
330
2A
100
AcDbVisualStyle
  2
Thicken
 70
    13
 71
     2
 72
     2
 73
     0
 90
        0
 40
-0.6
 41
-30.0
 62
     5
 63
     7
421
 16777215
 74
     1
 91
        4
 64
     7
 65
   257
 75
     1
175
     1
 42
1.0
 92
       12
 66
     7
 43
1.0
 76
     1
 77
     6
 78
     2
 67
     7
 79
     5
170
     0
171
     0
290
     0
174
     0
 93
        1
 44
0.0
173
     0
291
     1
 45
0.0
1001
ACAD
1000
AcDbSavedByObjectVersion
1070
     0
  0
ENDSEC
  0
EOF
